  0
SECTION
  2
HEADER
  9
$ACADVER
  1
AC1012
  9
$DWGCODEPAGE
  3
ansi_1252
  9
$INSBASE
 10
0.0
 20
0.0
 30
0.0
  9
$EXTMIN
 10
-83.43170000000001
 20
-123.7533
 30
0.0
  9
$EXTMAX
 10
73.4138
 20
127.2195
 30
0.0
  9
$LIMMIN
 10
0.0
 20
0.0
  9
$LIMMAX
 10
12.0
 20
9.0
  9
$ORTHOMODE
 70
     0
  9
$REGENMODE
 70
     1
  9
$FILLMODE
 70
     1
  9
$QTEXTMODE
 70
     0
  9
$MIRRTEXT
 70
     1
  9
$DRAGMODE
 70
     2
  9
$LTSCALE
 40
1.0
  9
$OSMODE
 70
    37
  9
$ATTMODE
 70
     1
  9
$TEXTSIZE
 40
0.2
  9
$TRACEWID
 40
0.05
  9
$TEXTSTYLE
  7
STANDARD
  9
$CLAYER
  8
0
  9
$CELTYPE
  6
BYLAYER
  9
$CECOLOR
 62
   256
  9
$CELTSCALE
 40
1.0
  9
$DELOBJ
 70
     1
  9
$DISPSILH
 70
     0
  9
$DIMSCALE
 40
1.0
  9
$DIMASZ
 40
0.18
  9
$DIMEXO
 40
0.0625
  9
$DIMDLI
 40
0.38
  9
$DIMRND
 40
0.0
  9
$DIMDLE
 40
0.0
  9
$DIMEXE
 40
0.18
  9
$DIMTP
 40
0.0
  9
$DIMTM
 40
0.0
  9
$DIMTXT
 40
0.18
  9
$DIMCEN
 40
0.09
  9
$DIMTSZ
 40
0.0
  9
$DIMTOL
 70
     0
  9
$DIMLIM
 70
     0
  9
$DIMTIH
 70
     1
  9
$DIMTOH
 70
     1
  9
$DIMSE1
 70
     0
  9
$DIMSE2
 70
     0
  9
$DIMTAD
 70
     0
  9
$DIMZIN
 70
     0
  9
$DIMBLK
  1

  9
$DIMASO
 70
     1
  9
$DIMSHO
 70
     1
  9
$DIMPOST
  1

  9
$DIMAPOST
  1

  9
$DIMALT
 70
     0
  9
$DIMALTD
 70
     2
  9
$DIMALTF
 40
25.4
  9
$DIMLFAC
 40
1.0
  9
$DIMTOFL
 70
     0
  9
$DIMTVP
 40
0.0
  9
$DIMTIX
 70
     0
  9
$DIMSOXD
 70
     0
  9
$DIMSAH
 70
     0
  9
$DIMBLK1
  1

  9
$DIMBLK2
  1

  9
$DIMSTYLE
  2
STANDARD
  9
$DIMCLRD
 70
     0
  9
$DIMCLRE
 70
     0
  9
$DIMCLRT
 70
     0
  9
$DIMTFAC
 40
1.0
  9
$DIMGAP
 40
0.09
  9
$DIMJUST
 70
     0
  9
$DIMSD1
 70
     0
  9
$DIMSD2
 70
     0
  9
$DIMTOLJ
 70
     1
  9
$DIMTZIN
 70
     0
  9
$DIMALTZ
 70
     0
  9
$DIMALTTZ
 70
     0
  9
$DIMFIT
 70
     3
  9
$DIMUPT
 70
     0
  9
$DIMUNIT
 70
     2
  9
$DIMDEC
 70
     4
  9
$DIMTDEC
 70
     4
  9
$DIMALTU
 70
     2
  9
$DIMALTTD
 70
     2
  9
$DIMTXSTY
  7
STANDARD
  9
$DIMAUNIT
 70
     0
  9
$LUNITS
 70
     2
  9
$LUPREC
 70
     4
  9
$SKETCHINC
 40
0.1
  9
$FILLETRAD
 40
0.5
  9
$AUNITS
 70
     0
  9
$AUPREC
 70
     0
  9
$MENU
  1
.
  9
$ELEVATION
 40
0.0
  9
$PELEVATION
 40
0.0
  9
$THICKNESS
 40
0.0
  9
$LIMCHECK
 70
     0
  9
$CHAMFERA
 40
0.5
  9
$CHAMFERB
 40
0.5
  9
$CHAMFERC
 40
1.0
  9
$CHAMFERD
 40
0.0
  9
$SKPOLY
 70
     0
  9
$TDCREATE
 40
2455562.685347246
  9
$TDUPDATE
 40
2455562.685347257
  9
$TDINDWG
 40
0.0000000116
  9
$TDUSRTIMER
 40
0.0000000116
  9
$USRTIMER
 70
     1
  9
$ANGBASE
 50
0.0
  9
$ANGDIR
 70
     0
  9
$PDMODE
 70
     0
  9
$PDSIZE
 40
0.0
  9
$PLINEWID
 40
0.0
  9
$COORDS
 70
     1
  9
$SPLFRAME
 70
     0
  9
$SPLINETYPE
 70
     6
  9
$SPLINESEGS
 70
     8
  9
$ATTDIA
 70
     0
  9
$ATTREQ
 70
     1
  9
$HANDLING
 70
     1
  9
$HANDSEED
  5
84
  9
$SURFTAB1
 70
     6
  9
$SURFTAB2
 70
     6
  9
$SURFTYPE
 70
     6
  9
$SURFU
 70
     6
  9
$SURFV
 70
     6
  9
$UCSNAME
  2

  9
$UCSORG
 10
0.0
 20
0.0
 30
0.0
  9
$UCSXDIR
 10
1.0
 20
0.0
 30
0.0
  9
$UCSYDIR
 10
0.0
 20
1.0
 30
0.0
  9
$PUCSNAME
  2

  9
$PUCSORG
 10
0.0
 20
0.0
 30
0.0
  9
$PUCSXDIR
 10
1.0
 20
0.0
 30
0.0
  9
$PUCSYDIR
 10
0.0
 20
1.0
 30
0.0
  9
$USERI1
 70
     0
  9
$USERI2
 70
     0
  9
$USERI3
 70
     0
  9
$USERI4
 70
     0
  9
$USERI5
 70
     0
  9
$USERR1
 40
0.0
  9
$USERR2
 40
0.0
  9
$USERR3
 40
0.0
  9
$USERR4
 40
0.0
  9
$USERR5
 40
0.0
  9
$WORLDVIEW
 70
     1
  9
$SHADEDGE
 70
     3
  9
$SHADEDIF
 70
    70
  9
$TILEMODE
 70
     1
  9
$MAXACTVP
 70
    64
  9
$PINSBASE
 10
0.0
 20
0.0
 30
0.0
  9
$PLIMCHECK
 70
     0
  9
$PEXTMIN
 10
1.000000000000000E+20
 20
1.000000000000000E+20
 30
1.000000000000000E+20
  9
$PEXTMAX
 10
-1.000000000000000E+20
 20
-1.000000000000000E+20
 30
-1.000000000000000E+20
  9
$PLIMMIN
 10
0.0
 20
0.0
  9
$PLIMMAX
 10
12.0
 20
9.0
  9
$UNITMODE
 70
     0
  9
$VISRETAIN
 70
     1
  9
$PLINEGEN
 70
     0
  9
$PSLTSCALE
 70
     1
  9
$TREEDEPTH
 70
  3020
  9
$PICKSTYLE
 70
     1
  9
$CMLSTYLE
  2
STANDARD
  9
$CMLJUST
 70
     0
  9
$CMLSCALE
 40
1.0
  9
$SAVEIMAGES
 70
     1
  0
ENDSEC
  0
SECTION
  2
CLASSES
  0
CLASS
  1
ACDBDICTIONARYWDFLT
  2
AcDbDictionaryWithDefault
  3
ObjectDBX Classes
 90
        0
280
     0
281
     0
  0
CLASS
  1
XRECORD
  2
AcDbXrecord
  3
AutoCAD 2000
 90
    32768
280
     0
281
     0
  0
CLASS
  1
LWPOLYLINE
  2
AcDbPolyline
  3
AutoCAD 2000
 90
    32768
280
     0
281
     1
  0
CLASS
  1
HATCH
  2
AcDbHatch
  3
AutoCAD 2000
 90
    32768
280
     0
281
     1
  0
CLASS
  1
ACDBPLACEHOLDER
  2
AcDbPlaceHolder
  3
ObjectDBX Classes
 90
        0
280
     0
281
     0
  0
CLASS
  1
LAYOUT
  2
AcDbLayout
  3
ObjectDBX Classes
 90
        0
280
     0
281
     0
  0
ENDSEC
  0
SECTION
  2
TABLES
  0
TABLE
  2
VPORT
  5
8
330
0
100
AcDbSymbolTable
 70
     2
  0
VPORT
  5
29
102
{ACAD_XDICTIONARY
360
82
102
}
330
8
100
AcDbSymbolTableRecord
100
AcDbViewportTableRecord
  2
*ACTIVE
 70
     0
 10
0.0
 20
0.0
 11
1.0
 21
1.0
 12
10.42990654205607
 22
4.5
 13
0.0
 23
0.0
 14
0.5
 24
0.5
 15
0.5
 25
0.5
 16
0.0
 26
0.0
 36
1.0
 17
0.0
 27
0.0
 37
0.0
 40
9.0
 41
1.972972972850329
 42
50.0
 43
0.0
 44
0.0
 50
0.0
 51
0.0
 71
     0
 72
   100
 73
     1
 74
     3
 75
     0
 76
     0
 77
     0
 78
     0
  0
ENDTAB
  0
TABLE
  2
LTYPE
  5
5
330
0
100
AcDbSymbolTable
 70
     1
  0
LTYPE
  5
14
330
5
100
AcDbSymbolTableRecord
100
AcDbLinetypeTableRecord
  2
BYBLOCK
 70
     0
  3

 72
    65
 73
     0
 40
0.0
  0
LTYPE
  5
15
330
5
100
AcDbSymbolTableRecord
100
AcDbLinetypeTableRecord
  2
BYLAYER
 70
     0
  3

 72
    65
 73
     0
 40
0.0
  0
LTYPE
  5
16
330
5
100
AcDbSymbolTableRecord
100
AcDbLinetypeTableRecord
  2
CONTINUOUS
 70
     0
  3
Solid line
 72
    65
 73
     0
 40
0.0
  0
ENDTAB
  0
TABLE
  2
LAYER
  5
2
330
0
100
AcDbSymbolTable
 70
     2
  0
LAYER
  5
10
330
2
100
AcDbSymbolTableRecord
100
AcDbLayerTableRecord
  2
0
 70
     0
 62
     7
  6
CONTINUOUS
  0
LAYER
  5
2B
330
2
100
AcDbSymbolTableRecord
100
AcDbLayerTableRecord
  2
EBENE_1
 70
     0
 62
     7
  6
CONTINUOUS
  0
ENDTAB
  0
TABLE
  2
STYLE
  5
3
330
0
100
AcDbSymbolTable
 70
     1
  0
STYLE
  5
11
330
3
100
AcDbSymbolTableRecord
100
AcDbTextStyleTableRecord
  2
STANDARD
 70
     0
 40
0.0
 41
1.0
 50
0.0
 71
     0
 42
0.2
  3
txt
  4

  0
ENDTAB
  0
TABLE
  2
VIEW
  5
6
330
0
100
AcDbSymbolTable
 70
     0
  0
ENDTAB
  0
TABLE
  2
UCS
  5
7
330
0
100
AcDbSymbolTable
 70
     0
  0
ENDTAB
  0
TABLE
  2
APPID
  5
9
330
0
100
AcDbSymbolTable
 70
     2
  0
APPID
  5
12
330
9
100
AcDbSymbolTableRecord
100
AcDbRegAppTableRecord
  2
ACAD
 70
     0
  0
APPID
  5
2A
330
9
100
AcDbSymbolTableRecord
100
AcDbRegAppTableRecord
  2
ODA
 70
     0
  0
ENDTAB
  0
TABLE
  2
DIMSTYLE
  5
A
330
0
100
AcDbSymbolTable
 70
     1
  0
DIMSTYLE
105
27
330
A
100
AcDbSymbolTableRecord
100
AcDbDimStyleTableRecord
  2
STANDARD
 70
     0
  3

  4

  5

  6

  7

 40
1.0
 41
0.18
 42
0.0625
 43
0.38
 44
0.18
 45
0.0
 46
0.0
 47
0.0
 48
0.0
140
0.18
141
0.09
142
0.0
143
25.4
144
1.0
145
0.0
146
1.0
147
0.09
 71
     0
 72
     0
 73
     1
 74
     1
 75
     0
 76
     0
 77
     0
 78
     0
170
     0
171
     2
172
     0
173
     0
174
     0
175
     0
176
     0
177
     0
178
     0
270
     2
271
     4
272
     4
273
     2
274
     2
340
11
275
     0
280
     0
281
     0
282
     0
283
     1
284
     0
285
     0
286
     0
287
     3
288
     0
  0
ENDTAB
  0
TABLE
  2
BLOCK_RECORD
  5
1
330
0
100
AcDbSymbolTable
 70
     1
  0
BLOCK_RECORD
  5
1F
330
1
100
AcDbSymbolTableRecord
100
AcDbBlockTableRecord
  2
*MODEL_SPACE
  0
BLOCK_RECORD
  5
1B
330
1
100
AcDbSymbolTableRecord
100
AcDbBlockTableRecord
  2
*PAPER_SPACE
  0
ENDTAB
  0
ENDSEC
  0
SECTION
  2
BLOCKS
  0
BLOCK
  5
20
330
1F
100
AcDbEntity
  8
0
100
AcDbBlockBegin
  2
*MODEL_SPACE
 70
     0
 71
     0
 10
0.0
 20
0.0
 30
0.0
  3
*MODEL_SPACE
  1

  0
ENDBLK
  5
21
330
1F
100
AcDbEntity
  8
0
100
AcDbBlockEnd
  0
BLOCK
  5
1C
330
1B
100
AcDbEntity
 67
     1
  8
0
100
AcDbBlockBegin
  2
*PAPER_SPACE
 70
     0
 71
     0
 10
0.0
 20
0.0
 30
0.0
  3
*PAPER_SPACE
  1

  0
ENDBLK
  5
1D
330
1B
100
AcDbEntity
 67
     1
  8
0
100
AcDbBlockEnd
  0
ENDSEC
  0
SECTION
  2
ENTITIES
  0
SPLINE
  5
2C
330
1F
100
AcDbEntity
  8
EBENE_1
 62
   253
100
AcDbSpline
210
0.0
220
0.0
230
1.0
 70
    11
 71
     3
 72
    36
 73
    32
 74
     0
 42
0.0000000001
 43
0.0000000001
 40
0.0
 40
0.0
 40
0.0
 40
0.0
 40
0.125
 40
0.125
 40
0.125
 40
0.125
 40
0.25
 40
0.25
 40
0.25
 40
0.25
 40
0.375
 40
0.375
 40
0.375
 40
0.375
 40
0.5
 40
0.5
 40
0.5
 40
0.5
 40
0.625
 40
0.625
 40
0.625
 40
0.625
 40
0.75
 40
0.75
 40
0.75
 40
0.75
 40
0.875
 40
0.875
 40
0.875
 40
0.875
 40
1.0
 40
1.0
 40
1.0
 40
1.0
 10
18.6039
 20
-100.1426
 30
0.0
 10
18.6039
 20
-100.1426
 30
0.0
 10
3.6523
 20
-100.1426
 30
0.0
 10
3.6523
 20
-100.1426
 30
0.0
 10
3.6523
 20
-100.1426
 30
0.0
 10
1.0836
 20
-100.1426
 30
0.0
 10
-1.018
 20
-98.7415
 30
0.0
 10
-1.018
 20
-97.0291
 30
0.0
 10
-1.018
 20
-97.0291
 30
0.0
 10
-1.018
 20
-97.0291
 30
0.0
 10
-1.018
 20
-83.2561
 30
0.0
 10
-1.018
 20
-83.2561
 30
0.0
 10
-1.018
 20
-83.2561
 30
0.0
 10
-1.018
 20
-81.5437
 30
0.0
 10
1.0835
 20
-80.1426
 30
0.0
 10
3.6523
 20
-80.1426
 30
0.0
 10
3.6523
 20
-80.1426
 30
0.0
 10
3.6523
 20
-80.1426
 30
0.0
 10
18.6039
 20
-80.1426
 30
0.0
 10
18.6039
 20
-80.1426
 30
0.0
 10
18.6039
 20
-80.1426
 30
0.0
 10
24.47
 20
-80.1426
 30
0.0
 10
24.47
 20
-83.256
 30
0.0
 10
24.47
 20
-83.256
 30
0.0
 10
24.47
 20
-83.256
 30
0.0
 10
24.47
 20
-83.256
 30
0.0
 10
24.47
 20
-97.0291
 30
0.0
 10
24.47
 20
-97.0291
 30
0.0
 10
24.47
 20
-97.0291
 30
0.0
 10
24.47
 20
-97.0291
 30
0.0
 10
24.47
 20
-100.1426
 30
0.0
 10
18.6039
 20
-100.1426
 30
0.0
  0
SPLINE
  5
2D
330
1F
100
AcDbEntity
  8
EBENE_1
 62
   253
100
AcDbSpline
210
0.0
220
0.0
230
1.0
 70
    11
 71
     3
 72
    20
 73
    16
 74
     0
 42
0.0000000001
 43
0.0000000001
 40
0.0
 40
0.0
 40
0.0
 40
0.0
 40
0.25
 40
0.25
 40
0.25
 40
0.25
 40
0.5
 40
0.5
 40
0.5
 40
0.5
 40
0.75
 40
0.75
 40
0.75
 40
0.75
 40
1.0
 40
1.0
 40
1.0
 40
1.0
 10
4.085900000000001
 20
-95.65180000000001
 30
0.0
 10
4.085900000000001
 20
-97.1447
 30
0.0
 10
0.9820000000000001
 20
-96.94290000000001
 30
0.0
 10
0.9820000000000001
 20
-95.65180000000001
 30
0.0
 10
0.9820000000000001
 20
-95.65180000000001
 30
0.0
 10
0.9820000000000001
 20
-95.65180000000001
 30
0.0
 10
0.9820000000000001
 20
-84.63340000000001
 30
0.0
 10
0.9820000000000001
 20
-84.63340000000001
 30
0.0
 10
0.9820000000000001
 20
-84.63340000000001
 30
0.0
 10
0.9820000000000001
 20
-83.34230000000001
 30
0.0
 10
4.085900000000001
 20
-83.32210000000001
 30
0.0
 10
4.085900000000001
 20
-84.63340000000001
 30
0.0
 10
4.085900000000001
 20
-84.63340000000001
 30
0.0
 10
4.085900000000001
 20
-84.63340000000001
 30
0.0
 10
4.085900000000001
 20
-95.65180000000001
 30
0.0
 10
4.085900000000001
 20
-95.65180000000001
 30
0.0
  0
SPLINE
  5
2E
330
1F
100
AcDbEntity
  8
EBENE_1
 62
   253
100
AcDbSpline
210
0.0
220
0.0
230
1.0
 70
    11
 71
     3
 72
    20
 73
    16
 74
     0
 42
0.0000000001
 43
0.0000000001
 40
0.0
 40
0.0
 40
0.0
 40
0.0
 40
0.25
 40
0.25
 40
0.25
 40
0.25
 40
0.5
 40
0.5
 40
0.5
 40
0.5
 40
0.75
 40
0.75
 40
0.75
 40
0.75
 40
1.0
 40
1.0
 40
1.0
 40
1.0
 10
12.2744
 20
-83.45180000000001
 30
0.0
 10
11.446
 20
-83.45180000000001
 30
0.0
 10
10.7743
 20
-84.12350000000001
 30
0.0
 10
10.7743
 20
-84.95180000000001
 30
0.0
 10
10.7743
 20
-84.95180000000001
 30
0.0
 10
10.7743
 20
-85.7801
 30
0.0
 10
11.446
 20
-86.45180000000001
 30
0.0
 10
12.2744
 20
-86.45180000000001
 30
0.0
 10
12.2744
 20
-86.45180000000001
 30
0.0
 10
13.1026
 20
-86.45180000000001
 30
0.0
 10
13.7743
 20
-85.7801
 30
0.0
 10
13.7743
 20
-84.95180000000001
 30
0.0
 10
13.7743
 20
-84.95180000000001
 30
0.0
 10
13.7743
 20
-84.12350000000001
 30
0.0
 10
13.1026
 20
-83.45180000000001
 30
0.0
 10
12.2744
 20
-83.45180000000001
 30
0.0
  0
SPLINE
  5
2F
330
1F
100
AcDbEntity
  8
EBENE_1
 62
   253
100
AcDbSpline
210
0.0
220
0.0
230
1.0
 70
    11
 71
     3
 72
    20
 73
    16
 74
     0
 42
0.0000000001
 43
0.0000000001
 40
0.0
 40
0.0
 40
0.0
 40
0.0
 40
0.25
 40
0.25
 40
0.25
 40
0.25
 40
0.5
 40
0.5
 40
0.5
 40
0.5
 40
0.75
 40
0.75
 40
0.75
 40
0.75
 40
1.0
 40
1.0
 40
1.0
 40
1.0
 10
12.2744
 20
-93.88170000000001
 30
0.0
 10
11.446
 20
-93.88170000000001
 30
0.0
 10
10.7743
 20
-94.55340000000001
 30
0.0
 10
10.7743
 20
-95.38170000000001
 30
0.0
 10
10.7743
 20
-95.38170000000001
 30
0.0
 10
10.7743
 20
-96.21000000000001
 30
0.0
 10
11.446
 20
-96.88170000000001
 30
0.0
 10
12.2744
 20
-96.88170000000001
 30
0.0
 10
12.2744
 20
-96.88170000000001
 30
0.0
 10
13.1026
 20
-96.88170000000001
 30
0.0
 10
13.7743
 20
-96.21000000000001
 30
0.0
 10
13.7743
 20
-95.38170000000001
 30
0.0
 10
13.7743
 20
-95.38170000000001
 30
0.0
 10
13.7743
 20
-94.55340000000001
 30
0.0
 10
13.1026
 20
-93.88170000000001
 30
0.0
 10
12.2744
 20
-93.88170000000001
 30
0.0
  0
SPLINE
  5
30
330
1F
100
AcDbEntity
  8
EBENE_1
 62
   253
100
AcDbSpline
210
0.0
220
0.0
230
1.0
 70
    11
 71
     3
 72
    36
 73
    32
 74
     0
 42
0.0000000001
 43
0.0000000001
 40
0.0
 40
0.0
 40
0.0
 40
0.0
 40
0.125
 40
0.125
 40
0.125
 40
0.125
 40
0.25
 40
0.25
 40
0.25
 40
0.25
 40
0.375
 40
0.375
 40
0.375
 40
0.375
 40
0.5
 40
0.5
 40
0.5
 40
0.5
 40
0.625
 40
0.625
 40
0.625
 40
0.625
 40
0.75
 40
0.75
 40
0.75
 40
0.75
 40
0.875
 40
0.875
 40
0.875
 40
0.875
 40
1.0
 40
1.0
 40
1.0
 40
1.0
 10
-63.39360000000001
 20
-104.0933
 30
0.0
 10
-63.39360000000001
 20
-104.0933
 30
0.0
 10
-63.39360000000001
 20
-119.0449
 30
0.0
 10
-63.39360000000001
 20
-119.0449
 30
0.0
 10
-63.39360000000001
 20
-119.0449
 30
0.0
 10
-63.39360000000001
 20
-121.6136
 30
0.0
 10
-64.79470000000001
 20
-123.7152
 30
0.0
 10
-66.50710000000001
 20
-123.7152
 30
0.0
 10
-66.50710000000001
 20
-123.7152
 30
0.0
 10
-66.50710000000001
 20
-123.7152
 30
0.0
 10
-80.2801
 20
-123.7152
 30
0.0
 10
-80.2801
 20
-123.7152
 30
0.0
 10
-80.2801
 20
-123.7152
 30
0.0
 10
-81.99250000000001
 20
-123.7152
 30
0.0
 10
-83.39360000000001
 20
-121.6137
 30
0.0
 10
-83.39360000000001
 20
-119.0449
 30
0.0
 10
-83.39360000000001
 20
-119.0449
 30
0.0
 10
-83.39360000000001
 20
-119.0449
 30
0.0
 10
-83.39360000000001
 20
-104.0933
 30
0.0
 10
-83.39360000000001
 20
-104.0933
 30
0.0
 10
-83.39360000000001
 20
-104.0933
 30
0.0
 10
-83.39360000000001
 20
-98.22720000000001
 30
0.0
 10
-80.28020000000001
 20
-98.22720000000001
 30
0.0
 10
-80.28020000000001
 20
-98.22720000000001
 30
0.0
 10
-80.28020000000001
 20
-98.22720000000001
 30
0.0
 10
-80.28020000000001
 20
-98.22720000000001
 30
0.0
 10
-66.50710000000001
 20
-98.22720000000001
 30
0.0
 10
-66.50710000000001
 20
-98.22720000000001
 30
0.0
 10
-66.50710000000001
 20
-98.22720000000001
 30
0.0
 10
-66.50710000000001
 20
-98.22720000000001
 30
0.0
 10
-63.39360000000001
 20
-98.22720000000001
 30
0.0
 10
-63.39360000000001
 20
-104.0933
 30
0.0
  0
SPLINE
  5
31
330
1F
100
AcDbEntity
  8
EBENE_1
 62
   253
100
AcDbSpline
210
0.0
220
0.0
230
1.0
 70
    11
 71
     3
 72
    20
 73
    16
 74
     0
 42
0.0000000001
 43
0.0000000001
 40
0.0
 40
0.0
 40
0.0
 40
0.0
 40
0.25
 40
0.25
 40
0.25
 40
0.25
 40
0.5
 40
0.5
 40
0.5
 40
0.5
 40
0.75
 40
0.75
 40
0.75
 40
0.75
 40
1.0
 40
1.0
 40
1.0
 40
1.0
 10
-67.8844
 20
-118.6113
 30
0.0
 10
-66.39150000000001
 20
-118.6113
 30
0.0
 10
-66.5933
 20
-121.7152
 30
0.0
 10
-67.8844
 20
-121.7152
 30
0.0
 10
-67.8844
 20
-121.7152
 30
0.0
 10
-67.8844
 20
-121.7152
 30
0.0
 10
-78.9028
 20
-121.7152
 30
0.0
 10
-78.9028
 20
-121.7152
 30
0.0
 10
-78.9028
 20
-121.7152
 30
0.0
 10
-80.1939
 20
-121.7152
 30
0.0
 10
-80.2141
 20
-118.6113
 30
0.0
 10
-78.9028
 20
-118.6113
 30
0.0
 10
-78.9028
 20
-118.6113
 30
0.0
 10
-78.9028
 20
-118.6113
 30
0.0
 10
-67.8844
 20
-118.6113
 30
0.0
 10
-67.8844
 20
-118.6113
 30
0.0
  0
SPLINE
  5
32
330
1F
100
AcDbEntity
  8
EBENE_1
 62
   253
100
AcDbSpline
210
0.0
220
0.0
230
1.0
 70
    11
 71
     3
 72
    20
 73
    16
 74
     0
 42
0.0000000001
 43
0.0000000001
 40
0.0
 40
0.0
 40
0.0
 40
0.0
 40
0.25
 40
0.25
 40
0.25
 40
0.25
 40
0.5
 40
0.5
 40
0.5
 40
0.5
 40
0.75
 40
0.75
 40
0.75
 40
0.75
 40
1.0
 40
1.0
 40
1.0
 40
1.0
 10
-80.0844
 20
-110.4228
 30
0.0
 10
-80.0844
 20
-111.2512
 30
0.0
 10
-79.4127
 20
-111.9229
 30
0.0
 10
-78.5844
 20
-111.9229
 30
0.0
 10
-78.5844
 20
-111.9229
 30
0.0
 10
-77.7561
 20
-111.9229
 30
0.0
 10
-77.0844
 20
-111.2512
 30
0.0
 10
-77.0844
 20
-110.4228
 30
0.0
 10
-77.0844
 20
-110.4228
 30
0.0
 10
-77.0844
 20
-109.5946
 30
0.0
 10
-77.7561
 20
-108.9229
 30
0.0
 10
-78.5844
 20
-108.9229
 30
0.0
 10
-78.5844
 20
-108.9229
 30
0.0
 10
-79.4127
 20
-108.9229
 30
0.0
 10
-80.0844
 20
-109.5946
 30
0.0
 10
-80.0844
 20
-110.4228
 30
0.0
  0
SPLINE
  5
33
330
1F
100
AcDbEntity
  8
EBENE_1
 62
   253
100
AcDbSpline
210
0.0
220
0.0
230
1.0
 70
    11
 71
     3
 72
    20
 73
    16
 74
     0
 42
0.0000000001
 43
0.0000000001
 40
0.0
 40
0.0
 40
0.0
 40
0.0
 40
0.25
 40
0.25
 40
0.25
 40
0.25
 40
0.5
 40
0.5
 40
0.5
 40
0.5
 40
0.75
 40
0.75
 40
0.75
 40
0.75
 40
1.0
 40
1.0
 40
1.0
 40
1.0
 10
-69.6545
 20
-110.4228
 30
0.0
 10
-69.6545
 20
-111.2512
 30
0.0
 10
-68.9828
 20
-111.9229
 30
0.0
 10
-68.1545
 20
-111.9229
 30
0.0
 10
-68.1545
 20
-111.9229
 30
0.0
 10
-67.3262
 20
-111.9229
 30
0.0
 10
-66.6545
 20
-111.2512
 30
0.0
 10
-66.6545
 20
-110.4228
 30
0.0
 10
-66.6545
 20
-110.4228
 30
0.0
 10
-66.6545
 20
-109.5946
 30
0.0
 10
-67.3262
 20
-108.9229
 30
0.0
 10
-68.1545
 20
-108.9229
 30
0.0
 10
-68.1545
 20
-108.9229
 30
0.0
 10
-68.9828
 20
-108.9229
 30
0.0
 10
-69.6545
 20
-109.5946
 30
0.0
 10
-69.6545
 20
-110.4228
 30
0.0
  0
SPLINE
  5
34
330
1F
100
AcDbEntity
  8
EBENE_1
 62
   253
100
AcDbSpline
210
0.0
220
0.0
230
1.0
 70
    11
 71
     3
 72
    36
 73
    32
 74
     0
 42
0.0000000001
 43
0.0000000001
 40
0.0
 40
0.0
 40
0.0
 40
0.0
 40
0.125
 40
0.125
 40
0.125
 40
0.125
 40
0.25
 40
0.25
 40
0.25
 40
0.25
 40
0.375
 40
0.375
 40
0.375
 40
0.375
 40
0.5
 40
0.5
 40
0.5
 40
0.5
 40
0.625
 40
0.625
 40
0.625
 40
0.625
 40
0.75
 40
0.75
 40
0.75
 40
0.75
 40
0.875
 40
0.875
 40
0.875
 40
0.875
 40
1.0
 40
1.0
 40
1.0
 40
1.0
 10
-80.2801
 20
51.9812
 30
0.0
 10
-80.2801
 20
51.9812
 30
0.0
 10
-66.50710000000001
 20
51.9812
 30
0.0
 10
-66.50710000000001
 20
51.9812
 30
0.0
 10
-66.50710000000001
 20
51.9812
 30
0.0
 10
-64.7946
 20
51.9812
 30
0.0
 10
-63.39360000000001
 20
49.8797
 30
0.0
 10
-63.39360000000001
 20
47.3109
 30
0.0
 10
-63.39360000000001
 20
47.3109
 30
0.0
 10
-63.39360000000001
 20
47.3109
 30
0.0
 10
-63.39360000000001
 20
41.6515
 30
0.0
 10
-63.39360000000001
 20
41.6515
 30
0.0
 10
-63.39360000000001
 20
41.6515
 30
0.0
 10
-63.39360000000001
 20
39.0827
 30
0.0
 10
-64.7946
 20
36.9812
 30
0.0
 10
-66.50710000000001
 20
36.9812
 30
0.0
 10
-66.50710000000001
 20
36.9812
 30
0.0
 10
-66.50710000000001
 20
36.9812
 30
0.0
 10
-80.2801
 20
36.9812
 30
0.0
 10
-80.2801
 20
36.9812
 30
0.0
 10
-80.2801
 20
36.9812
 30
0.0
 10
-81.99260000000001
 20
36.9812
 30
0.0
 10
-83.39360000000001
 20
39.0827
 30
0.0
 10
-83.39360000000001
 20
41.6515
 30
0.0
 10
-83.39360000000001
 20
41.6515
 30
0.0
 10
-83.39360000000001
 20
41.6515
 30
0.0
 10
-83.39360000000001
 20
47.3109
 30
0.0
 10
-83.39360000000001
 20
47.3109
 30
0.0
 10
-83.39360000000001
 20
47.3109
 30
0.0
 10
-83.39360000000001
 20
49.8797
 30
0.0
 10
-81.99260000000001
 20
51.9812
 30
0.0
 10
-80.2801
 20
51.9812
 30
0.0
  0
SPLINE
  5
35
330
1F
100
AcDbEntity
  8
EBENE_1
 62
   253
100
AcDbSpline
210
0.0
220
0.0
230
1.0
 70
    11
 71
     3
 72
    20
 73
    16
 74
     0
 42
0.0000000001
 43
0.0000000001
 40
0.0
 40
0.0
 40
0.0
 40
0.0
 40
0.25
 40
0.25
 40
0.25
 40
0.25
 40
0.5
 40
0.5
 40
0.5
 40
0.5
 40
0.75
 40
0.75
 40
0.75
 40
0.75
 40
1.0
 40
1.0
 40
1.0
 40
1.0
 10
-67.8844
 20
42.0851
 30
0.0
 10
-66.39150000000001
 20
42.0851
 30
0.0
 10
-66.5933
 20
38.9812
 30
0.0
 10
-67.8844
 20
38.9812
 30
0.0
 10
-67.8844
 20
38.9812
 30
0.0
 10
-67.8844
 20
38.9812
 30
0.0
 10
-78.9028
 20
38.9812
 30
0.0
 10
-78.9028
 20
38.9812
 30
0.0
 10
-78.9028
 20
38.9812
 30
0.0
 10
-80.1939
 20
38.9812
 30
0.0
 10
-80.2141
 20
42.0851
 30
0.0
 10
-78.9028
 20
42.0851
 30
0.0
 10
-78.9028
 20
42.0851
 30
0.0
 10
-78.9028
 20
42.0851
 30
0.0
 10
-67.8844
 20
42.0851
 30
0.0
 10
-67.8844
 20
42.0851
 30
0.0
  0
SPLINE
  5
36
330
1F
100
AcDbEntity
  8
EBENE_1
 62
   253
100
AcDbSpline
210
0.0
220
0.0
230
1.0
 70
    11
 71
     3
 72
    20
 73
    16
 74
     0
 42
0.0000000001
 43
0.0000000001
 40
0.0
 40
0.0
 40
0.0
 40
0.0
 40
0.25
 40
0.25
 40
0.25
 40
0.25
 40
0.5
 40
0.5
 40
0.5
 40
0.5
 40
0.75
 40
0.75
 40
0.75
 40
0.75
 40
1.0
 40
1.0
 40
1.0
 40
1.0
 10
-78.9028
 20
46.5563
 30
0.0
 10
-80.31020000000001
 20
46.5563
 30
0.0
 10
-80.2728
 20
49.9812
 30
0.0
 10
-78.9028
 20
49.9812
 30
0.0
 10
-78.9028
 20
49.9812
 30
0.0
 10
-78.9028
 20
49.9812
 30
0.0
 10
-67.8844
 20
49.9812
 30
0.0
 10
-67.8844
 20
49.9812
 30
0.0
 10
-67.8844
 20
49.9812
 30
0.0
 10
-66.51440000000001
 20
49.9812
 30
0.0
 10
-66.3374
 20
46.5563
 30
0.0
 10
-67.8844
 20
46.5563
 30
0.0
 10
-67.8844
 20
46.5563
 30
0.0
 10
-67.8844
 20
46.5563
 30
0.0
 10
-78.9028
 20
46.5563
 30
0.0
 10
-78.9028
 20
46.5563
 30
0.0
  0
SPLINE
  5
37
330
1F
100
AcDbEntity
  8
EBENE_1
 62
   253
100
AcDbSpline
210
0.0
220
0.0
230
1.0
 70
    11
 71
     3
 72
    36
 73
    32
 74
     0
 42
0.0000000001
 43
0.0000000001
 40
0.0
 40
0.0
 40
0.0
 40
0.0
 40
0.125
 40
0.125
 40
0.125
 40
0.125
 40
0.25
 40
0.25
 40
0.25
 40
0.25
 40
0.375
 40
0.375
 40
0.375
 40
0.375
 40
0.5
 40
0.5
 40
0.5
 40
0.5
 40
0.625
 40
0.625
 40
0.625
 40
0.625
 40
0.75
 40
0.75
 40
0.75
 40
0.75
 40
0.875
 40
0.875
 40
0.875
 40
0.875
 40
1.0
 40
1.0
 40
1.0
 40
1.0
 10
-80.2801
 20
69.1174
 30
0.0
 10
-80.2801
 20
69.1174
 30
0.0
 10
-66.50710000000001
 20
69.1174
 30
0.0
 10
-66.50710000000001
 20
69.1174
 30
0.0
 10
-66.50710000000001
 20
69.1174
 30
0.0
 10
-64.7946
 20
69.1174
 30
0.0
 10
-63.39360000000001
 20
67.0159
 30
0.0
 10
-63.39360000000001
 20
64.44710000000001
 30
0.0
 10
-63.39360000000001
 20
64.44710000000001
 30
0.0
 10
-63.39360000000001
 20
64.44710000000001
 30
0.0
 10
-63.39360000000001
 20
58.7877
 30
0.0
 10
-63.39360000000001
 20
58.7877
 30
0.0
 10
-63.39360000000001
 20
58.7877
 30
0.0
 10
-63.39360000000001
 20
56.21890000000001
 30
0.0
 10
-64.7946
 20
54.1174
 30
0.0
 10
-66.50710000000001
 20
54.1174
 30
0.0
 10
-66.50710000000001
 20
54.1174
 30
0.0
 10
-66.50710000000001
 20
54.1174
 30
0.0
 10
-80.2801
 20
54.1174
 30
0.0
 10
-80.2801
 20
54.1174
 30
0.0
 10
-80.2801
 20
54.1174
 30
0.0
 10
-81.99260000000001
 20
54.1174
 30
0.0
 10
-83.39360000000001
 20
56.21890000000001
 30
0.0
 10
-83.39360000000001
 20
58.7877
 30
0.0
 10
-83.39360000000001
 20
58.7877
 30
0.0
 10
-83.39360000000001
 20
58.7877
 30
0.0
 10
-83.39360000000001
 20
64.44710000000001
 30
0.0
 10
-83.39360000000001
 20
64.44710000000001
 30
0.0
 10
-83.39360000000001
 20
64.44710000000001
 30
0.0
 10
-83.39360000000001
 20
67.0159
 30
0.0
 10
-81.99260000000001
 20
69.1174
 30
0.0
 10
-80.2801
 20
69.1174
 30
0.0
  0
SPLINE
  5
38
330
1F
100
AcDbEntity
  8
EBENE_1
 62
   253
100
AcDbSpline
210
0.0
220
0.0
230
1.0
 70
    11
 71
     3
 72
    20
 73
    16
 74
     0
 42
0.0000000001
 43
0.0000000001
 40
0.0
 40
0.0
 40
0.0
 40
0.0
 40
0.25
 40
0.25
 40
0.25
 40
0.25
 40
0.5
 40
0.5
 40
0.5
 40
0.5
 40
0.75
 40
0.75
 40
0.75
 40
0.75
 40
1.0
 40
1.0
 40
1.0
 40
1.0
 10
-67.8844
 20
59.2213
 30
0.0
 10
-66.39150000000001
 20
59.2213
 30
0.0
 10
-66.5933
 20
56.1174
 30
0.0
 10
-67.8844
 20
56.1174
 30
0.0
 10
-67.8844
 20
56.1174
 30
0.0
 10
-67.8844
 20
56.1174
 30
0.0
 10
-78.9028
 20
56.1174
 30
0.0
 10
-78.9028
 20
56.1174
 30
0.0
 10
-78.9028
 20
56.1174
 30
0.0
 10
-80.1939
 20
56.1174
 30
0.0
 10
-80.2141
 20
59.2213
 30
0.0
 10
-78.9028
 20
59.2213
 30
0.0
 10
-78.9028
 20
59.2213
 30
0.0
 10
-78.9028
 20
59.2213
 30
0.0
 10
-67.8844
 20
59.2213
 30
0.0
 10
-67.8844
 20
59.2213
 30
0.0
  0
SPLINE
  5
39
330
1F
100
AcDbEntity
  8
EBENE_1
 62
   253
100
AcDbSpline
210
0.0
220
0.0
230
1.0
 70
    11
 71
     3
 72
    20
 73
    16
 74
     0
 42
0.0000000001
 43
0.0000000001
 40
0.0
 40
0.0
 40
0.0
 40
0.0
 40
0.25
 40
0.25
 40
0.25
 40
0.25
 40
0.5
 40
0.5
 40
0.5
 40
0.5
 40
0.75
 40
0.75
 40
0.75
 40
0.75
 40
1.0
 40
1.0
 40
1.0
 40
1.0
 10
-78.9028
 20
63.6925
 30
0.0
 10
-80.31020000000001
 20
63.6925
 30
0.0
 10
-80.2728
 20
67.1174
 30
0.0
 10
-78.9028
 20
67.1174
 30
0.0
 10
-78.9028
 20
67.1174
 30
0.0
 10
-78.9028
 20
67.1174
 30
0.0
 10
-67.8844
 20
67.1174
 30
0.0
 10
-67.8844
 20
67.1174
 30
0.0
 10
-67.8844
 20
67.1174
 30
0.0
 10
-66.51440000000001
 20
67.1174
 30
0.0
 10
-66.3374
 20
63.6925
 30
0.0
 10
-67.8844
 20
63.6925
 30
0.0
 10
-67.8844
 20
63.6925
 30
0.0
 10
-67.8844
 20
63.6925
 30
0.0
 10
-78.9028
 20
63.6925
 30
0.0
 10
-78.9028
 20
63.6925
 30
0.0
  0
SPLINE
  5
3A
330
1F
100
AcDbEntity
  8
EBENE_1
 62
   253
100
AcDbSpline
210
0.0
220
0.0
230
1.0
 70
    11
 71
     3
 72
    36
 73
    32
 74
     0
 42
0.0000000001
 43
0.0000000001
 40
0.0
 40
0.0
 40
0.0
 40
0.0
 40
0.125
 40
0.125
 40
0.125
 40
0.125
 40
0.25
 40
0.25
 40
0.25
 40
0.25
 40
0.375
 40
0.375
 40
0.375
 40
0.375
 40
0.5
 40
0.5
 40
0.5
 40
0.5
 40
0.625
 40
0.625
 40
0.625
 40
0.625
 40
0.75
 40
0.75
 40
0.75
 40
0.75
 40
0.875
 40
0.875
 40
0.875
 40
0.875
 40
1.0
 40
1.0
 40
1.0
 40
1.0
 10
-6.7042
 20
-25.314
 30
0.0
 10
-6.7042
 20
-25.314
 30
0.0
 10
7.0688
 20
-25.314
 30
0.0
 10
7.0688
 20
-25.314
 30
0.0
 10
7.0688
 20
-25.314
 30
0.0
 10
8.7813
 20
-25.314
 30
0.0
 10
10.1823
 20
-27.4155
 30
0.0
 10
10.1823
 20
-29.9843
 30
0.0
 10
10.1823
 20
-29.9843
 30
0.0
 10
10.1823
 20
-29.9843
 30
0.0
 10
10.1823
 20
-35.6437
 30
0.0
 10
10.1823
 20
-35.6437
 30
0.0
 10
10.1823
 20
-35.6437
 30
0.0
 10
10.1823
 20
-38.2125
 30
0.0
 10
8.7813
 20
-40.314
 30
0.0
 10
7.0688
 20
-40.314
 30
0.0
 10
7.0688
 20
-40.314
 30
0.0
 10
7.0688
 20
-40.314
 30
0.0
 10
-6.7042
 20
-40.314
 30
0.0
 10
-6.7042
 20
-40.314
 30
0.0
 10
-6.7042
 20
-40.314
 30
0.0
 10
-8.416700000000001
 20
-40.314
 30
0.0
 10
-9.8177
 20
-38.2125
 30
0.0
 10
-9.8177
 20
-35.6437
 30
0.0
 10
-9.8177
 20
-35.6437
 30
0.0
 10
-9.8177
 20
-35.6437
 30
0.0
 10
-9.8177
 20
-29.9843
 30
0.0
 10
-9.8177
 20
-29.9843
 30
0.0
 10
-9.8177
 20
-29.9843
 30
0.0
 10
-9.8177
 20
-27.4155
 30
0.0
 10
-8.416700000000001
 20
-25.314
 30
0.0
 10
-6.7042
 20
-25.314
 30
0.0
  0
SPLINE
  5
3B
330
1F
100
AcDbEntity
  8
EBENE_1
 62
   253
100
AcDbSpline
210
0.0
220
0.0
230
1.0
 70
    11
 71
     3
 72
    20
 73
    16
 74
     0
 42
0.0000000001
 43
0.0000000001
 40
0.0
 40
0.0
 40
0.0
 40
0.0
 40
0.25
 40
0.25
 40
0.25
 40
0.25
 40
0.5
 40
0.5
 40
0.5
 40
0.5
 40
0.75
 40
0.75
 40
0.75
 40
0.75
 40
1.0
 40
1.0
 40
1.0
 40
1.0
 10
5.6915
 20
-35.2101
 30
0.0
 10
7.1844
 20
-35.2101
 30
0.0
 10
6.982600000000001
 20
-38.314
 30
0.0
 10
5.6915
 20
-38.314
 30
0.0
 10
5.6915
 20
-38.314
 30
0.0
 10
5.6915
 20
-38.314
 30
0.0
 10
-5.3269
 20
-38.314
 30
0.0
 10
-5.3269
 20
-38.314
 30
0.0
 10
-5.3269
 20
-38.314
 30
0.0
 10
-6.618
 20
-38.314
 30
0.0
 10
-6.6382
 20
-35.2101
 30
0.0
 10
-5.3269
 20
-35.2101
 30
0.0
 10
-5.3269
 20
-35.2101
 30
0.0
 10
-5.3269
 20
-35.2101
 30
0.0
 10
5.6915
 20
-35.2101
 30
0.0
 10
5.6915
 20
-35.2101
 30
0.0
  0
SPLINE
  5
3C
330
1F
100
AcDbEntity
  8
EBENE_1
 62
   253
100
AcDbSpline
210
0.0
220
0.0
230
1.0
 70
    11
 71
     3
 72
    20
 73
    16
 74
     0
 42
0.0000000001
 43
0.0000000001
 40
0.0
 40
0.0
 40
0.0
 40
0.0
 40
0.25
 40
0.25
 40
0.25
 40
0.25
 40
0.5
 40
0.5
 40
0.5
 40
0.5
 40
0.75
 40
0.75
 40
0.75
 40
0.75
 40
1.0
 40
1.0
 40
1.0
 40
1.0
 10
-5.3269
 20
-30.7389
 30
0.0
 10
-6.7343
 20
-30.7389
 30
0.0
 10
-6.6969
 20
-27.314
 30
0.0
 10
-5.3269
 20
-27.314
 30
0.0
 10
-5.3269
 20
-27.314
 30
0.0
 10
-5.3269
 20
-27.314
 30
0.0
 10
5.6915
 20
-27.314
 30
0.0
 10
5.6915
 20
-27.314
 30
0.0
 10
5.6915
 20
-27.314
 30
0.0
 10
7.061500000000001
 20
-27.314
 30
0.0
 10
7.2385
 20
-30.7389
 30
0.0
 10
5.6915
 20
-30.7389
 30
0.0
 10
5.6915
 20
-30.7389
 30
0.0
 10
5.6915
 20
-30.7389
 30
0.0
 10
-5.3269
 20
-30.7389
 30
0.0
 10
-5.3269
 20
-30.7389
 30
0.0
  0
SPLINE
  5
3D
330
1F
100
AcDbEntity
  8
EBENE_1
 62
   253
100
AcDbSpline
210
0.0
220
0.0
230
1.0
 70
    11
 71
     3
 72
    36
 73
    32
 74
     0
 42
0.0000000001
 43
0.0000000001
 40
0.0
 40
0.0
 40
0.0
 40
0.0
 40
0.125
 40
0.125
 40
0.125
 40
0.125
 40
0.25
 40
0.25
 40
0.25
 40
0.25
 40
0.375
 40
0.375
 40
0.375
 40
0.375
 40
0.5
 40
0.5
 40
0.5
 40
0.5
 40
0.625
 40
0.625
 40
0.625
 40
0.625
 40
0.75
 40
0.75
 40
0.75
 40
0.75
 40
0.875
 40
0.875
 40
0.875
 40
0.875
 40
1.0
 40
1.0
 40
1.0
 40
1.0
 10
16.562
 20
-25.314
 30
0.0
 10
16.562
 20
-25.314
 30
0.0
 10
30.335
 20
-25.314
 30
0.0
 10
30.335
 20
-25.314
 30
0.0
 10
30.335
 20
-25.314
 30
0.0
 10
32.0475
 20
-25.314
 30
0.0
 10
33.4485
 20
-27.4155
 30
0.0
 10
33.4485
 20
-29.9843
 30
0.0
 10
33.4485
 20
-29.9843
 30
0.0
 10
33.4485
 20
-29.9843
 30
0.0
 10
33.4485
 20
-35.6437
 30
0.0
 10
33.4485
 20
-35.6437
 30
0.0
 10
33.4485
 20
-35.6437
 30
0.0
 10
33.4485
 20
-38.2125
 30
0.0
 10
32.0475
 20
-40.314
 30
0.0
 10
30.335
 20
-40.314
 30
0.0
 10
30.335
 20
-40.314
 30
0.0
 10
30.335
 20
-40.314
 30
0.0
 10
16.562
 20
-40.314
 30
0.0
 10
16.562
 20
-40.314
 30
0.0
 10
16.562
 20
-40.314
 30
0.0
 10
14.8495
 20
-40.314
 30
0.0
 10
13.4485
 20
-38.2125
 30
0.0
 10
13.4485
 20
-35.6437
 30
0.0
 10
13.4485
 20
-35.6437
 30
0.0
 10
13.4485
 20
-35.6437
 30
0.0
 10
13.4485
 20
-29.9843
 30
0.0
 10
13.4485
 20
-29.9843
 30
0.0
 10
13.4485
 20
-29.9843
 30
0.0
 10
13.4485
 20
-27.4155
 30
0.0
 10
14.8495
 20
-25.314
 30
0.0
 10
16.562
 20
-25.314
 30
0.0
  0
SPLINE
  5
3E
330
1F
100
AcDbEntity
  8
EBENE_1
 62
   253
100
AcDbSpline
210
0.0
220
0.0
230
1.0
 70
    11
 71
     3
 72
    20
 73
    16
 74
     0
 42
0.0000000001
 43
0.0000000001
 40
0.0
 40
0.0
 40
0.0
 40
0.0
 40
0.25
 40
0.25
 40
0.25
 40
0.25
 40
0.5
 40
0.5
 40
0.5
 40
0.5
 40
0.75
 40
0.75
 40
0.75
 40
0.75
 40
1.0
 40
1.0
 40
1.0
 40
1.0
 10
28.9577
 20
-35.2101
 30
0.0
 10
30.4506
 20
-35.2101
 30
0.0
 10
30.2488
 20
-38.314
 30
0.0
 10
28.9577
 20
-38.314
 30
0.0
 10
28.9577
 20
-38.314
 30
0.0
 10
28.9577
 20
-38.314
 30
0.0
 10
17.9393
 20
-38.314
 30
0.0
 10
17.9393
 20
-38.314
 30
0.0
 10
17.9393
 20
-38.314
 30
0.0
 10
16.6482
 20
-38.314
 30
0.0
 10
16.628
 20
-35.2101
 30
0.0
 10
17.9393
 20
-35.2101
 30
0.0
 10
17.9393
 20
-35.2101
 30
0.0
 10
17.9393
 20
-35.2101
 30
0.0
 10
28.9577
 20
-35.2101
 30
0.0
 10
28.9577
 20
-35.2101
 30
0.0
  0
SPLINE
  5
3F
330
1F
100
AcDbEntity
  8
EBENE_1
 62
   253
100
AcDbSpline
210
0.0
220
0.0
230
1.0
 70
    11
 71
     3
 72
    20
 73
    16
 74
     0
 42
0.0000000001
 43
0.0000000001
 40
0.0
 40
0.0
 40
0.0
 40
0.0
 40
0.25
 40
0.25
 40
0.25
 40
0.25
 40
0.5
 40
0.5
 40
0.5
 40
0.5
 40
0.75
 40
0.75
 40
0.75
 40
0.75
 40
1.0
 40
1.0
 40
1.0
 40
1.0
 10
17.9393
 20
-30.7389
 30
0.0
 10
16.5319
 20
-30.7389
 30
0.0
 10
16.5693
 20
-27.314
 30
0.0
 10
17.9393
 20
-27.314
 30
0.0
 10
17.9393
 20
-27.314
 30
0.0
 10
17.9393
 20
-27.314
 30
0.0
 10
28.9577
 20
-27.314
 30
0.0
 10
28.9577
 20
-27.314
 30
0.0
 10
28.9577
 20
-27.314
 30
0.0
 10
30.3277
 20
-27.314
 30
0.0
 10
30.5047
 20
-30.7389
 30
0.0
 10
28.9577
 20
-30.7389
 30
0.0
 10
28.9577
 20
-30.7389
 30
0.0
 10
28.9577
 20
-30.7389
 30
0.0
 10
17.9393
 20
-30.7389
 30
0.0
 10
17.9393
 20
-30.7389
 30
0.0
  0
SPLINE
  5
40
330
1F
100
AcDbEntity
  8
EBENE_1
 62
   253
100
AcDbSpline
210
0.0
220
0.0
230
1.0
 70
    11
 71
     3
 72
    44
 73
    40
 74
     0
 42
0.0000000001
 43
0.0000000001
 40
0.0
 40
0.0
 40
0.0
 40
0.0
 40
0.1
 40
0.1
 40
0.1
 40
0.1
 40
0.2
 40
0.2
 40
0.2
 40
0.2
 40
0.3
 40
0.3
 40
0.3
 40
0.3
 40
0.4
 40
0.4
 40
0.4
 40
0.4
 40
0.5
 40
0.5
 40
0.5
 40
0.5
 40
0.6
 40
0.6
 40
0.6
 40
0.6
 40
0.7
 40
0.7
 40
0.7
 40
0.7
 40
0.7999999999999999
 40
0.7999999999999999
 40
0.7999999999999999
 40
0.7999999999999999
 40
0.8999999999999999
 40
0.8999999999999999
 40
0.8999999999999999
 40
0.8999999999999999
 40
1.0
 40
1.0
 40
1.0
 40
1.0
 10
-80.2801
 20
34.43250000000001
 30
0.0
 10
-80.2801
 20
34.43250000000001
 30
0.0
 10
-66.50710000000001
 20
34.43250000000001
 30
0.0
 10
-66.50710000000001
 20
34.43250000000001
 30
0.0
 10
-66.50710000000001
 20
34.43250000000001
 30
0.0
 10
-64.7946
 20
34.43250000000001
 30
0.0
 10
-63.39360000000001
 20
32.3309
 30
0.0
 10
-63.39360000000001
 20
29.7622
 30
0.0
 10
-63.39360000000001
 20
29.7622
 30
0.0
 10
-63.39360000000001
 20
29.7622
 30
0.0
 10
-63.39360000000001
 20
21.2818
 30
0.0
 10
-63.39360000000001
 20
21.2818
 30
0.0
 10
-63.39360000000001
 20
21.2818
 30
0.0
 10
-63.39360000000001
 20
18.7134
 30
0.0
 10
-64.86450000000001
 20
17.0938
 30
0.0
 10
-66.50710000000001
 20
16.6115
 30
0.0
 10
-66.50710000000001
 20
16.6115
 30
0.0
 10
-68.3638
 20
16.0662
 30
0.0
 10
-70.1037
 20
16.76
 30
0.0
 10
-71.9862
 20
15.6115
 30
0.0
 10
-71.9862
 20
15.6115
 30
0.0
 10
-72.81230000000001
 20
14.9906
 30
0.0
 10
-73.74330000000001
 20
14.9506
 30
0.0
 10
-74.801
 20
15.6115
 30
0.0
 10
-74.801
 20
15.6115
 30
0.0
 10
-76.6001
 20
16.958
 30
0.0
 10
-78.44930000000001
 20
15.9706
 30
0.0
 10
-80.2801
 20
16.6115
 30
0.0
 10
-80.2801
 20
16.6115
 30
0.0
 10
-81.8961
 20
17.1771
 30
0.0
 10
-83.39360000000001
 20
18.713
 30
0.0
 10
-83.39360000000001
 20
21.2818
 30
0.0
 10
-83.39360000000001
 20
21.2818
 30
0.0
 10
-83.39360000000001
 20
21.2818
 30
0.0
 10
-83.39360000000001
 20
29.7622
 30
0.0
 10
-83.39360000000001
 20
29.7622
 30
0.0
 10
-83.39360000000001
 20
29.7622
 30
0.0
 10
-83.39360000000001
 20
32.331
 30
0.0
 10
-81.99260000000001
 20
34.43250000000001
 30
0.0
 10
-80.2801
 20
34.43250000000001
 30
0.0
  0
SPLINE
  5
41
330
1F
100
AcDbEntity
  8
EBENE_1
 62
   253
100
AcDbSpline
210
0.0
220
0.0
230
1.0
 70
    11
 71
     3
 72
    20
 73
    16
 74
     0
 42
0.0000000001
 43
0.0000000001
 40
0.0
 40
0.0
 40
0.0
 40
0.0
 40
0.25
 40
0.25
 40
0.25
 40
0.25
 40
0.5
 40
0.5
 40
0.5
 40
0.5
 40
0.75
 40
0.75
 40
0.75
 40
0.75
 40
1.0
 40
1.0
 40
1.0
 40
1.0
 10
-67.8844
 20
21.7153
 30
0.0
 10
-66.32340000000001
 20
21.7154
 30
0.0
 10
-66.5933
 20
18.6115
 30
0.0
 10
-67.8844
 20
18.6115
 30
0.0
 10
-67.8844
 20
18.6115
 30
0.0
 10
-67.8844
 20
18.6115
 30
0.0
 10
-78.9028
 20
18.6115
 30
0.0
 10
-78.9028
 20
18.6115
 30
0.0
 10
-78.9028
 20
18.6115
 30
0.0
 10
-80.1939
 20
18.6115
 30
0.0
 10
-80.146
 20
21.7154
 30
0.0
 10
-78.9028
 20
21.7153
 30
0.0
 10
-78.9028
 20
21.7153
 30
0.0
 10
-78.9028
 20
21.7153
 30
0.0
 10
-67.8844
 20
21.7153
 30
0.0
 10
-67.8844
 20
21.7153
 30
0.0
  0
SPLINE
  5
42
330
1F
100
AcDbEntity
  8
EBENE_1
 62
   253
100
AcDbSpline
210
0.0
220
0.0
230
1.0
 70
    11
 71
     3
 72
    20
 73
    16
 74
     0
 42
0.0000000001
 43
0.0000000001
 40
0.0
 40
0.0
 40
0.0
 40
0.0
 40
0.25
 40
0.25
 40
0.25
 40
0.25
 40
0.5
 40
0.5
 40
0.5
 40
0.5
 40
0.75
 40
0.75
 40
0.75
 40
0.75
 40
1.0
 40
1.0
 40
1.0
 40
1.0
 10
-78.9028
 20
26.1866
 30
0.0
 10
-80.28750000000001
 20
26.2317
 30
0.0
 10
-80.2728
 20
31.386
 30
0.0
 10
-78.9028
 20
31.386
 30
0.0
 10
-78.9028
 20
31.386
 30
0.0
 10
-78.9028
 20
31.386
 30
0.0
 10
-67.8844
 20
31.386
 30
0.0
 10
-67.8844
 20
31.386
 30
0.0
 10
-67.8844
 20
31.386
 30
0.0
 10
-66.51440000000001
 20
31.386
 30
0.0
 10
-66.4997
 20
26.209
 30
0.0
 10
-67.8844
 20
26.1866
 30
0.0
 10
-67.8844
 20
26.1866
 30
0.0
 10
-67.8844
 20
26.1866
 30
0.0
 10
-78.9028
 20
26.1866
 30
0.0
 10
-78.9028
 20
26.1866
 30
0.0
  0
SPLINE
  5
43
330
1F
100
AcDbEntity
  8
EBENE_1
 62
   253
100
AcDbSpline
210
0.0
220
0.0
230
1.0
 70
    11
 71
     3
 72
    44
 73
    40
 74
     0
 42
0.0000000001
 43
0.0000000001
 40
0.0
 40
0.0
 40
0.0
 40
0.0
 40
0.1
 40
0.1
 40
0.1
 40
0.1
 40
0.2
 40
0.2
 40
0.2
 40
0.2
 40
0.3
 40
0.3
 40
0.3
 40
0.3
 40
0.4
 40
0.4
 40
0.4
 40
0.4
 40
0.5
 40
0.5
 40
0.5
 40
0.5
 40
0.6
 40
0.6
 40
0.6
 40
0.6
 40
0.7
 40
0.7
 40
0.7
 40
0.7
 40
0.7999999999999999
 40
0.7999999999999999
 40
0.7999999999999999
 40
0.7999999999999999
 40
0.8999999999999999
 40
0.8999999999999999
 40
0.8999999999999999
 40
0.8999999999999999
 40
1.0
 40
1.0
 40
1.0
 40
1.0
 10
-80.2801
 20
13.2857
 30
0.0
 10
-80.2801
 20
13.2857
 30
0.0
 10
-66.50710000000001
 20
13.2857
 30
0.0
 10
-66.50710000000001
 20
13.2857
 30
0.0
 10
-66.50710000000001
 20
13.2857
 30
0.0
 10
-64.7946
 20
13.2857
 30
0.0
 10
-63.39360000000001
 20
11.1841
 30
0.0
 10
-63.39360000000001
 20
8.615400000000001
 30
0.0
 10
-63.39360000000001
 20
8.615400000000001
 30
0.0
 10
-63.39360000000001
 20
8.615400000000001
 30
0.0
 10
-63.39360000000001
 20
0.135
 30
0.0
 10
-63.39360000000001
 20
0.135
 30
0.0
 10
-63.39360000000001
 20
0.135
 30
0.0
 10
-63.39360000000001
 20
-2.4334
 30
0.0
 10
-64.86450000000001
 20
-4.053
 30
0.0
 10
-66.50710000000001
 20
-4.5353
 30
0.0
 10
-66.50710000000001
 20
-4.5353
 30
0.0
 10
-68.3638
 20
-5.0806
 30
0.0
 10
-70.1037
 20
-4.3868
 30
0.0
 10
-71.9862
 20
-5.5353
 30
0.0
 10
-71.9862
 20
-5.5353
 30
0.0
 10
-72.81230000000001
 20
-6.1562
 30
0.0
 10
-73.74330000000001
 20
-6.1962
 30
0.0
 10
-74.801
 20
-5.5353
 30
0.0
 10
-74.801
 20
-5.5353
 30
0.0
 10
-76.6001
 20
-4.188800000000001
 30
0.0
 10
-78.44930000000001
 20
-5.176200000000001
 30
0.0
 10
-80.2801
 20
-4.5353
 30
0.0
 10
-80.2801
 20
-4.5353
 30
0.0
 10
-81.8961
 20
-3.9697
 30
0.0
 10
-83.39360000000001
 20
-2.4338
 30
0.0
 10
-83.39360000000001
 20
0.135
 30
0.0
 10
-83.39360000000001
 20
0.135
 30
0.0
 10
-83.39360000000001
 20
0.135
 30
0.0
 10
-83.39360000000001
 20
8.615400000000001
 30
0.0
 10
-83.39360000000001
 20
8.615400000000001
 30
0.0
 10
-83.39360000000001
 20
8.615400000000001
 30
0.0
 10
-83.39360000000001
 20
11.1842
 30
0.0
 10
-81.99260000000001
 20
13.2857
 30
0.0
 10
-80.2801
 20
13.2857
 30
0.0
  0
SPLINE
  5
44
330
1F
100
AcDbEntity
  8
EBENE_1
 62
   253
100
AcDbSpline
210
0.0
220
0.0
230
1.0
 70
    11
 71
     3
 72
    20
 73
    16
 74
     0
 42
0.0000000001
 43
0.0000000001
 40
0.0
 40
0.0
 40
0.0
 40
0.0
 40
0.25
 40
0.25
 40
0.25
 40
0.25
 40
0.5
 40
0.5
 40
0.5
 40
0.5
 40
0.75
 40
0.75
 40
0.75
 40
0.75
 40
1.0
 40
1.0
 40
1.0
 40
1.0
 10
-67.8844
 20
0.5685
 30
0.0
 10
-66.32340000000001
 20
0.5686
 30
0.0
 10
-66.5933
 20
-2.5353
 30
0.0
 10
-67.8844
 20
-2.5353
 30
0.0
 10
-67.8844
 20
-2.5353
 30
0.0
 10
-67.8844
 20
-2.5353
 30
0.0
 10
-78.9028
 20
-2.5353
 30
0.0
 10
-78.9028
 20
-2.5353
 30
0.0
 10
-78.9028
 20
-2.5353
 30
0.0
 10
-80.1939
 20
-2.5353
 30
0.0
 10
-80.146
 20
0.5686
 30
0.0
 10
-78.9028
 20
0.5685
 30
0.0
 10
-78.9028
 20
0.5685
 30
0.0
 10
-78.9028
 20
0.5685
 30
0.0
 10
-67.8844
 20
0.5685
 30
0.0
 10
-67.8844
 20
0.5685
 30
0.0
  0
SPLINE
  5
45
330
1F
100
AcDbEntity
  8
EBENE_1
 62
   253
100
AcDbSpline
210
0.0
220
0.0
230
1.0
 70
    11
 71
     3
 72
    20
 73
    16
 74
     0
 42
0.0000000001
 43
0.0000000001
 40
0.0
 40
0.0
 40
0.0
 40
0.0
 40
0.25
 40
0.25
 40
0.25
 40
0.25
 40
0.5
 40
0.5
 40
0.5
 40
0.5
 40
0.75
 40
0.75
 40
0.75
 40
0.75
 40
1.0
 40
1.0
 40
1.0
 40
1.0
 10
-78.9028
 20
5.039800000000001
 30
0.0
 10
-80.28750000000001
 20
5.0849
 30
0.0
 10
-80.2728
 20
10.2392
 30
0.0
 10
-78.9028
 20
10.2392
 30
0.0
 10
-78.9028
 20
10.2392
 30
0.0
 10
-78.9028
 20
10.2392
 30
0.0
 10
-67.8844
 20
10.2392
 30
0.0
 10
-67.8844
 20
10.2392
 30
0.0
 10
-67.8844
 20
10.2392
 30
0.0
 10
-66.51440000000001
 20
10.2392
 30
0.0
 10
-66.4997
 20
5.0622
 30
0.0
 10
-67.8844
 20
5.039800000000001
 30
0.0
 10
-67.8844
 20
5.039800000000001
 30
0.0
 10
-67.8844
 20
5.039800000000001
 30
0.0
 10
-78.9028
 20
5.039800000000001
 30
0.0
 10
-78.9028
 20
5.039800000000001
 30
0.0
  0
SPLINE
  5
46
330
1F
100
AcDbEntity
  8
EBENE_1
 62
   253
100
AcDbSpline
210
0.0
220
0.0
230
1.0
 70
    11
 71
     3
 72
    36
 73
    32
 74
     0
 42
0.0000000001
 43
0.0000000001
 40
0.0
 40
0.0
 40
0.0
 40
0.0
 40
0.125
 40
0.125
 40
0.125
 40
0.125
 40
0.25
 40
0.25
 40
0.25
 40
0.25
 40
0.375
 40
0.375
 40
0.375
 40
0.375
 40
0.5
 40
0.5
 40
0.5
 40
0.5
 40
0.625
 40
0.625
 40
0.625
 40
0.625
 40
0.75
 40
0.75
 40
0.75
 40
0.75
 40
0.875
 40
0.875
 40
0.875
 40
0.875
 40
1.0
 40
1.0
 40
1.0
 40
1.0
 10
-75.39370000000001
 20
126.4773
 30
0.0
 10
-74.5642
 20
127.3432
 30
0.0
 10
-72.1609
 20
127.4472
 30
0.0
 10
-71.39370000000001
 20
126.5845
 30
0.0
 10
-71.39370000000001
 20
126.5845
 30
0.0
 10
-68.59180000000001
 20
123.4338
 30
0.0
 10
-63.39360000000001
 20
119.3808
 30
0.0
 10
-63.39360000000001
 20
111.7056
 30
0.0
 10
-63.39360000000001
 20
111.7056
 30
0.0
 10
-63.39360000000001
 20
111.7056
 30
0.0
 10
-63.39360000000001
 20
106.0462
 30
0.0
 10
-63.39360000000001
 20
106.0462
 30
0.0
 10
-63.39360000000001
 20
106.0462
 30
0.0
 10
-63.39360000000001
 20
103.4774
 30
0.0
 10
-64.7946
 20
101.3759
 30
0.0
 10
-66.50710000000001
 20
101.3759
 30
0.0
 10
-66.50710000000001
 20
101.3759
 30
0.0
 10
-66.50710000000001
 20
101.3759
 30
0.0
 10
-80.2801
 20
101.3759
 30
0.0
 10
-80.2801
 20
101.3759
 30
0.0
 10
-80.2801
 20
101.3759
 30
0.0
 10
-81.99260000000001
 20
101.3759
 30
0.0
 10
-83.39360000000001
 20
103.4774
 30
0.0
 10
-83.39360000000001
 20
106.0462
 30
0.0
 10
-83.39360000000001
 20
106.0462
 30
0.0
 10
-83.39360000000001
 20
106.0462
 30
0.0
 10
-83.39360000000001
 20
111.7056
 30
0.0
 10
-83.39360000000001
 20
111.7056
 30
0.0
 10
-83.39360000000001
 20
111.7056
 30
0.0
 10
-83.39360000000001
 20
119.2588
 30
0.0
 10
-78.312
 20
123.4309
 30
0.0
 10
-75.39370000000001
 20
126.4773
 30
0.0
  0
SPLINE
  5
47
330
1F
100
AcDbEntity
  8
EBENE_1
 62
   253
100
AcDbSpline
210
0.0
220
0.0
230
1.0
 70
    11
 71
     3
 72
    20
 73
    16
 74
     0
 42
0.0000000001
 43
0.0000000001
 40
0.0
 40
0.0
 40
0.0
 40
0.0
 40
0.25
 40
0.25
 40
0.25
 40
0.25
 40
0.5
 40
0.5
 40
0.5
 40
0.5
 40
0.75
 40
0.75
 40
0.75
 40
0.75
 40
1.0
 40
1.0
 40
1.0
 40
1.0
 10
-73.39360000000001
 20
125.3048
 30
0.0
 10
-74.49810000000001
 20
125.3048
 30
0.0
 10
-75.39370000000001
 20
124.4091
 30
0.0
 10
-75.39370000000001
 20
123.3048
 30
0.0
 10
-75.39370000000001
 20
123.3048
 30
0.0
 10
-75.39370000000001
 20
122.2004
 30
0.0
 10
-74.49810000000001
 20
121.3048
 30
0.0
 10
-73.39360000000001
 20
121.3048
 30
0.0
 10
-73.39360000000001
 20
121.3048
 30
0.0
 10
-72.2893
 20
121.3048
 30
0.0
 10
-71.39370000000001
 20
122.2004
 30
0.0
 10
-71.39370000000001
 20
123.3048
 30
0.0
 10
-71.39370000000001
 20
123.3048
 30
0.0
 10
-71.39370000000001
 20
124.4091
 30
0.0
 10
-72.2893
 20
125.3048
 30
0.0
 10
-73.39360000000001
 20
125.3048
 30
0.0
  0
SPLINE
  5
48
330
1F
100
AcDbEntity
  8
EBENE_1
 62
   253
100
AcDbSpline
210
0.0
220
0.0
230
1.0
 70
    11
 71
     3
 72
    20
 73
    16
 74
     0
 42
0.0000000001
 43
0.0000000001
 40
0.0
 40
0.0
 40
0.0
 40
0.0
 40
0.25
 40
0.25
 40
0.25
 40
0.25
 40
0.5
 40
0.5
 40
0.5
 40
0.5
 40
0.75
 40
0.75
 40
0.75
 40
0.75
 40
1.0
 40
1.0
 40
1.0
 40
1.0
 10
-67.8844
 20
106.4798
 30
0.0
 10
-66.39150000000001
 20
106.4798
 30
0.0
 10
-66.5933
 20
103.3759
 30
0.0
 10
-67.8844
 20
103.3759
 30
0.0
 10
-67.8844
 20
103.3759
 30
0.0
 10
-67.8844
 20
103.3759
 30
0.0
 10
-78.9028
 20
103.3759
 30
0.0
 10
-78.9028
 20
103.3759
 30
0.0
 10
-78.9028
 20
103.3759
 30
0.0
 10
-80.1939
 20
103.3759
 30
0.0
 10
-80.2141
 20
106.4798
 30
0.0
 10
-78.9028
 20
106.4798
 30
0.0
 10
-78.9028
 20
106.4798
 30
0.0
 10
-78.9028
 20
106.4798
 30
0.0
 10
-67.8844
 20
106.4798
 30
0.0
 10
-67.8844
 20
106.4798
 30
0.0
  0
SPLINE
  5
49
330
1F
100
AcDbEntity
  8
EBENE_1
 62
   253
100
AcDbSpline
210
0.0
220
0.0
230
1.0
 70
    11
 71
     3
 72
    36
 73
    32
 74
     0
 42
0.0000000001
 43
0.0000000001
 40
0.0
 40
0.0
 40
0.0
 40
0.0
 40
0.125
 40
0.125
 40
0.125
 40
0.125
 40
0.25
 40
0.25
 40
0.25
 40
0.25
 40
0.375
 40
0.375
 40
0.375
 40
0.375
 40
0.5
 40
0.5
 40
0.5
 40
0.5
 40
0.625
 40
0.625
 40
0.625
 40
0.625
 40
0.75
 40
0.75
 40
0.75
 40
0.75
 40
0.875
 40
0.875
 40
0.875
 40
0.875
 40
1.0
 40
1.0
 40
1.0
 40
1.0
 10
13.3257
 20
27.2608
 30
0.0
 10
14.5249
 20
27.274
 30
0.0
 10
16.2805
 20
25.6297
 30
0.0
 10
16.201
 20
24.4777
 30
0.0
 10
16.201
 20
24.4777
 30
0.0
 10
15.9101
 20
20.2715
 30
0.0
 10
16.6509
 20
13.7216
 30
0.0
 10
11.167
 20
8.352
 30
0.0
 10
11.167
 20
8.352
 30
0.0
 10
11.167
 20
8.352
 30
0.0
 10
7.123200000000001
 20
4.392300000000001
 30
0.0
 10
7.123200000000001
 20
4.392300000000001
 30
0.0
 10
7.123200000000001
 20
4.392300000000001
 30
0.0
 10
5.287900000000001
 20
2.5951
 30
0.0
 10
2.8062
 20
2.1259
 30
0.0
 10
1.608
 20
3.3496
 30
0.0
 10
1.608
 20
3.3496
 30
0.0
 10
1.608
 20
3.3496
 30
0.0
 10
-8.028000000000001
 20
13.1904
 30
0.0
 10
-8.028000000000001
 20
13.1904
 30
0.0
 10
-8.028000000000001
 20
13.1904
 30
0.0
 10
-9.226000000000001
 20
14.414
 30
0.0
 10
-8.704700000000001
 20
16.8853
 30
0.0
 10
-6.8693
 20
18.6826
 30
0.0
 10
-6.8693
 20
18.6826
 30
0.0
 10
-6.8693
 20
18.6826
 30
0.0
 10
-2.8257
 20
22.6421
 30
0.0
 10
-2.8257
 20
22.6421
 30
0.0
 10
-2.8257
 20
22.6421
 30
0.0
 10
2.5711
 20
27.9264
 30
0.0
 10
9.1074
 20
27.2146
 30
0.0
 10
13.3257
 20
27.2608
 30
0.0
  0
SPLINE
  5
4A
330
1F
100
AcDbEntity
  8
EBENE_1
 62
   253
100
AcDbSpline
210
0.0
220
0.0
230
1.0
 70
    11
 71
     3
 72
    20
 73
    16
 74
     0
 42
0.0000000001
 43
0.0000000001
 40
0.0
 40
0.0
 40
0.0
 40
0.0
 40
0.25
 40
0.25
 40
0.25
 40
0.25
 40
0.5
 40
0.5
 40
0.5
 40
0.5
 40
0.75
 40
0.75
 40
0.75
 40
0.75
 40
1.0
 40
1.0
 40
1.0
 40
1.0
 10
13.8873
 20
25.0112
 30
0.0
 10
13.1145
 20
25.8007
 30
0.0
 10
11.8482
 20
25.814
 30
0.0
 10
11.059
 20
25.0414
 30
0.0
 10
11.059
 20
25.0414
 30
0.0
 10
10.2698
 20
24.2687
 30
0.0
 10
10.2566
 20
23.002
 30
0.0
 10
11.0295
 20
22.213
 30
0.0
 10
11.0295
 20
22.213
 30
0.0
 10
11.802
 20
21.4238
 30
0.0
 10
13.0685
 20
21.4105
 30
0.0
 10
13.8575
 20
22.1832
 30
0.0
 10
13.8575
 20
22.1832
 30
0.0
 10
14.6467
 20
22.9557
 30
0.0
 10
14.6599
 20
24.2223
 30
0.0
 10
13.8873
 20
25.0112
 30
0.0
  0
SPLINE
  5
4B
330
1F
100
AcDbEntity
  8
EBENE_1
 62
   253
100
AcDbSpline
210
0.0
220
0.0
230
1.0
 70
    11
 71
     3
 72
    20
 73
    16
 74
     0
 42
0.0000000001
 43
0.0000000001
 40
0.0
 40
0.0
 40
0.0
 40
0.0
 40
0.25
 40
0.25
 40
0.25
 40
0.25
 40
0.5
 40
0.5
 40
0.5
 40
0.5
 40
0.75
 40
0.75
 40
0.75
 40
0.75
 40
1.0
 40
1.0
 40
1.0
 40
1.0
 10
4.2914
 20
7.904500000000001
 30
0.0
 10
5.3358
 20
6.837800000000001
 30
0.0
 10
2.9768
 20
4.810400000000001
 30
0.0
 10
2.0736
 20
5.7328
 30
0.0
 10
2.0736
 20
5.7328
 30
0.0
 10
2.0736
 20
5.7328
 30
0.0
 10
-5.635400000000001
 20
13.6058
 30
0.0
 10
-5.635400000000001
 20
13.6058
 30
0.0
 10
-5.635400000000001
 20
13.6058
 30
0.0
 10
-6.5385
 20
14.5279
 30
0.0
 10
-4.335
 20
16.7141
 30
0.0
 10
-3.4174
 20
15.7773
 30
0.0
 10
-3.4174
 20
15.7773
 30
0.0
 10
-3.4174
 20
15.7773
 30
0.0
 10
4.2914
 20
7.904500000000001
 30
0.0
 10
4.2914
 20
7.904500000000001
 30
0.0
  0
SPLINE
  5
4C
330
1F
100
AcDbEntity
  8
EBENE_1
 62
     5
100
AcDbSpline
210
0.0
220
0.0
230
1.0
 70
    27
 71
     3
 72
    12
 73
     8
 74
     0
 42
0.0000000001
 43
0.0000000001
 40
0.0
 40
0.0
 40
0.0
 40
0.0
 40
0.5
 40
0.5
 40
0.5
 40
0.5
 40
1.0
 40
1.0
 40
1.0
 40
1.0
 10
0.9820000000000001
 20
-84.63340000000001
 30
0.0
 10
0.9820000000000001
 20
-84.63340000000001
 30
0.0
 10
-48.7366
 20
-104.0933
 30
0.0
 10
-48.7366
 20
-104.0933
 30
0.0
 10
-48.7366
 20
-104.0933
 30
0.0
 10
-48.7366
 20
-104.0933
 30
0.0
 10
0.9820000000000001
 20
-84.63340000000001
 30
0.0
 10
0.9820000000000001
 20
-84.63340000000001
 30
0.0
  0
SPLINE
  5
4D
330
1F
100
AcDbEntity
  8
EBENE_1
 62
     5
100
AcDbSpline
210
0.0
220
0.0
230
1.0
 70
    11
 71
     3
 72
    20
 73
    16
 74
     0
 42
0.0000000001
 43
0.0000000001
 40
0.0
 40
0.0
 40
0.0
 40
0.0
 40
0.25
 40
0.25
 40
0.25
 40
0.25
 40
0.5
 40
0.5
 40
0.5
 40
0.5
 40
0.75
 40
0.75
 40
0.75
 40
0.75
 40
1.0
 40
1.0
 40
1.0
 40
1.0
 10
0.9820000000000001
 20
-84.63340000000001
 30
0.0
 10
0.9820000000000001
 20
-84.63340000000001
 30
0.0
 10
-48.7366
 20
-104.0933
 30
0.0
 10
-48.7366
 20
-104.0933
 30
0.0
 10
-48.7366
 20
-104.0933
 30
0.0
 10
-48.7366
 20
-104.0933
 30
0.0
 10
-41.8946
 20
-113.5355
 30
0.0
 10
-41.8946
 20
-113.5355
 30
0.0
 10
-41.8946
 20
-113.5355
 30
0.0
 10
-41.8946
 20
-113.5355
 30
0.0
 10
1.0823
 20
-95.9662
 30
0.0
 10
1.0823
 20
-95.9662
 30
0.0
 10
1.0823
 20
-95.9662
 30
0.0
 10
1.0823
 20
-95.9662
 30
0.0
 10
0.9820000000000001
 20
-84.63340000000001
 30
0.0
 10
0.9820000000000001
 20
-84.63340000000001
 30
0.0
  0
SPLINE
  5
4E
330
1F
100
AcDbEntity
  8
EBENE_1
100
AcDbSpline
210
0.0
220
0.0
230
1.0
 70
    24
 71
     3
 72
     8
 73
     4
 74
     0
 42
0.0000000001
 43
0.0000000001
 40
0.0
 40
0.0
 40
0.0
 40
0.0
 40
1.0
 40
1.0
 40
1.0
 40
1.0
 10
0.9820000000000001
 20
-84.63340000000001
 30
0.0
 10
0.9820000000000001
 20
-84.63340000000001
 30
0.0
 10
-48.7366
 20
-104.0933
 30
0.0
 10
-48.7366
 20
-104.0933
 30
0.0
  0
SPLINE
  5
4F
330
1F
100
AcDbEntity
  8
EBENE_1
100
AcDbSpline
210
0.0
220
0.0
230
1.0
 70
    11
 71
     3
 72
    20
 73
    16
 74
     0
 42
0.0000000001
 43
0.0000000001
 40
0.0
 40
0.0
 40
0.0
 40
0.0
 40
0.25
 40
0.25
 40
0.25
 40
0.25
 40
0.5
 40
0.5
 40
0.5
 40
0.5
 40
0.75
 40
0.75
 40
0.75
 40
0.75
 40
1.0
 40
1.0
 40
1.0
 40
1.0
 10
0.9820000000000001
 20
-84.63340000000001
 30
0.0
 10
0.9820000000000001
 20
-84.63340000000001
 30
0.0
 10
-48.7366
 20
-104.0933
 30
0.0
 10
-48.7366
 20
-104.0933
 30
0.0
 10
-48.7366
 20
-104.0933
 30
0.0
 10
-48.7366
 20
-104.0933
 30
0.0
 10
-41.8946
 20
-113.5355
 30
0.0
 10
-41.8946
 20
-113.5355
 30
0.0
 10
-41.8946
 20
-113.5355
 30
0.0
 10
-41.8946
 20
-113.5355
 30
0.0
 10
1.0823
 20
-95.9662
 30
0.0
 10
1.0823
 20
-95.9662
 30
0.0
 10
1.0823
 20
-95.9662
 30
0.0
 10
1.0823
 20
-95.9662
 30
0.0
 10
0.9820000000000001
 20
-84.63340000000001
 30
0.0
 10
0.9820000000000001
 20
-84.63340000000001
 30
0.0
  0
SPLINE
  5
50
330
1F
100
AcDbEntity
  8
EBENE_1
 62
   253
100
AcDbSpline
210
0.0
220
0.0
230
1.0
 70
    11
 71
     3
 72
    36
 73
    32
 74
     0
 42
0.0000000001
 43
0.0000000001
 40
0.0
 40
0.0
 40
0.0
 40
0.0
 40
0.125
 40
0.125
 40
0.125
 40
0.125
 40
0.25
 40
0.25
 40
0.25
 40
0.25
 40
0.375
 40
0.375
 40
0.375
 40
0.375
 40
0.5
 40
0.5
 40
0.5
 40
0.5
 40
0.625
 40
0.625
 40
0.625
 40
0.625
 40
0.75
 40
0.75
 40
0.75
 40
0.75
 40
0.875
 40
0.875
 40
0.875
 40
0.875
 40
1.0
 40
1.0
 40
1.0
 40
1.0
 10
18.0925
 20
-100.5445
 30
0.0
 10
17.912
 20
-101.8461
 30
0.0
 10
15.9208
 20
-103.1974
 30
0.0
 10
14.7381
 20
-102.7272
 30
0.0
 10
14.7381
 20
-102.7272
 30
0.0
 10
10.4191
 20
-101.0099
 30
0.0
 10
3.5004
 20
-99.6276
 30
0.0
 10
-1.1855
 20
-91.90400000000001
 30
0.0
 10
-1.1855
 20
-91.90400000000001
 30
0.0
 10
-1.1855
 20
-91.90400000000001
 30
0.0
 10
-4.6407
 20
-86.2089
 30
0.0
 10
-4.6407
 20
-86.2089
 30
0.0
 10
-4.6407
 20
-86.2089
 30
0.0
 10
-6.209000000000001
 20
-83.62390000000001
 30
0.0
 10
-6.2942
 20
-80.78240000000001
 30
0.0
 10
-4.8301
 20
-79.89410000000001
 30
0.0
 10
-4.8301
 20
-79.89410000000001
 30
0.0
 10
-4.8301
 20
-79.89410000000001
 30
0.0
 10
6.945200000000001
 20
-72.7501
 30
0.0
 10
6.945200000000001
 20
-72.7501
 30
0.0
 10
6.945200000000001
 20
-72.7501
 30
0.0
 10
8.4093
 20
-71.8618
 30
0.0
 10
10.8901
 20
-73.2499
 30
0.0
 10
12.4584
 20
-75.83490000000001
 30
0.0
 10
12.4584
 20
-75.83490000000001
 30
0.0
 10
12.4584
 20
-75.83490000000001
 30
0.0
 10
15.9136
 20
-81.53
 30
0.0
 10
15.9136
 20
-81.53
 30
0.0
 10
15.9136
 20
-81.53
 30
0.0
 10
20.525
 20
-89.13090000000001
 30
0.0
 10
18.7277
 20
-95.96520000000001
 30
0.0
 10
18.0925
 20
-100.5445
 30
0.0
  0
SPLINE
  5
51
330
1F
100
AcDbEntity
  8
EBENE_1
 62
   253
100
AcDbSpline
210
0.0
220
0.0
230
1.0
 70
    11
 71
     3
 72
    36
 73
    32
 74
     0
 42
0.0000000001
 43
0.0000000001
 40
0.0
 40
0.0
 40
0.0
 40
0.0
 40
0.125
 40
0.125
 40
0.125
 40
0.125
 40
0.25
 40
0.25
 40
0.25
 40
0.25
 40
0.375
 40
0.375
 40
0.375
 40
0.375
 40
0.5
 40
0.5
 40
0.5
 40
0.5
 40
0.625
 40
0.625
 40
0.625
 40
0.625
 40
0.75
 40
0.75
 40
0.75
 40
0.75
 40
0.875
 40
0.875
 40
0.875
 40
0.875
 40
1.0
 40
1.0
 40
1.0
 40
1.0
 10
15.5432
 20
-97.1858
 30
0.0
 10
15.4123
 20
-98.14270000000001
 30
0.0
 10
13.952
 20
-99.13380000000001
 30
0.0
 10
13.0835
 20
-98.78670000000001
 30
0.0
 10
13.0835
 20
-98.78670000000001
 30
0.0
 10
9.9109
 20
-97.5188
 30
0.0
 10
4.8303
 20
-96.494
 30
0.0
 10
1.3813
 20
-90.8091
 30
0.0
 10
1.3813
 20
-90.8091
 30
0.0
 10
1.3813
 20
-90.8091
 30
0.0
 10
-1.4431
 20
-86.1538
 30
0.0
 10
-1.4431
 20
-86.1538
 30
0.0
 10
-1.4431
 20
-86.1538
 30
0.0
 10
-2.5974
 20
-84.25110000000001
 30
0.0
 10
-2.6634
 20
-82.1615
 30
0.0
 10
-1.5897
 20
-81.51010000000001
 30
0.0
 10
-1.5897
 20
-81.51010000000001
 30
0.0
 10
-1.5897
 20
-81.51010000000001
 30
0.0
 10
7.045800000000001
 20
-76.271
 30
0.0
 10
7.045800000000001
 20
-76.271
 30
0.0
 10
7.045800000000001
 20
-76.271
 30
0.0
 10
8.1195
 20
-75.61960000000001
 30
0.0
 10
9.942300000000001
 20
-76.6434
 30
0.0
 10
11.0967
 20
-78.54600000000001
 30
0.0
 10
11.0967
 20
-78.54600000000001
 30
0.0
 10
11.0967
 20
-78.54600000000001
 30
0.0
 10
13.921
 20
-83.2013
 30
0.0
 10
13.921
 20
-83.2013
 30
0.0
 10
13.921
 20
-83.2013
 30
0.0
 10
17.3152
 20
-88.7959
 30
0.0
 10
16.004
 20
-93.81920000000001
 30
0.0
 10
15.5432
 20
-97.1858
 30
0.0
  0
SPLINE
  5
52
330
1F
100
AcDbEntity
  8
EBENE_1
 62
   253
100
AcDbSpline
210
0.0
220
0.0
230
1.0
 70
    11
 71
     3
 72
    36
 73
    32
 74
     0
 42
0.0000000001
 43
0.0000000001
 40
0.0
 40
0.0
 40
0.0
 40
0.0
 40
0.125
 40
0.125
 40
0.125
 40
0.125
 40
0.25
 40
0.25
 40
0.25
 40
0.25
 40
0.375
 40
0.375
 40
0.375
 40
0.375
 40
0.5
 40
0.5
 40
0.5
 40
0.5
 40
0.625
 40
0.625
 40
0.625
 40
0.625
 40
0.75
 40
0.75
 40
0.75
 40
0.75
 40
0.875
 40
0.875
 40
0.875
 40
0.875
 40
1.0
 40
1.0
 40
1.0
 40
1.0
 10
-71.3935
 20
-37.4889
 30
0.0
 10
-72.223
 20
-38.5081
 30
0.0
 10
-74.6263
 20
-38.63050000000001
 30
0.0
 10
-75.3935
 20
-37.61510000000001
 30
0.0
 10
-75.3935
 20
-37.61510000000001
 30
0.0
 10
-78.19540000000001
 20
-33.90660000000001
 30
0.0
 10
-83.39360000000001
 20
-29.1361
 30
0.0
 10
-83.39360000000001
 20
-20.1022
 30
0.0
 10
-83.39360000000001
 20
-20.1022
 30
0.0
 10
-83.39360000000001
 20
-20.1022
 30
0.0
 10
-83.39360000000001
 20
-13.4409
 30
0.0
 10
-83.39360000000001
 20
-13.4409
 30
0.0
 10
-83.39360000000001
 20
-13.4409
 30
0.0
 10
-83.39360000000001
 20
-10.4173
 30
0.0
 10
-81.99260000000001
 20
-7.9438
 30
0.0
 10
-80.2801
 20
-7.9438
 30
0.0
 10
-80.2801
 20
-7.9438
 30
0.0
 10
-80.2801
 20
-7.9438
 30
0.0
 10
-66.50710000000001
 20
-7.9438
 30
0.0
 10
-66.50710000000001
 20
-7.9438
 30
0.0
 10
-66.50710000000001
 20
-7.9438
 30
0.0
 10
-64.7946
 20
-7.9438
 30
0.0
 10
-63.39360000000001
 20
-10.4173
 30
0.0
 10
-63.39360000000001
 20
-13.4409
 30
0.0
 10
-63.39360000000001
 20
-13.4409
 30
0.0
 10
-63.39360000000001
 20
-13.4409
 30
0.0
 10
-63.39360000000001
 20
-20.1022
 30
0.0
 10
-63.39360000000001
 20
-20.1022
 30
0.0
 10
-63.39360000000001
 20
-20.1022
 30
0.0
 10
-63.39360000000001
 20
-28.9925
 30
0.0
 10
-68.4752
 20
-33.9032
 30
0.0
 10
-71.3935
 20
-37.4889
 30
0.0
  0
SPLINE
  5
53
330
1F
100
AcDbEntity
  8
EBENE_1
 62
   253
100
AcDbSpline
210
0.0
220
0.0
230
1.0
 70
    11
 71
     3
 72
    36
 73
    32
 74
     0
 42
0.0000000001
 43
0.0000000001
 40
0.0
 40
0.0
 40
0.0
 40
0.0
 40
0.125
 40
0.125
 40
0.125
 40
0.125
 40
0.25
 40
0.25
 40
0.25
 40
0.25
 40
0.375
 40
0.375
 40
0.375
 40
0.375
 40
0.5
 40
0.5
 40
0.5
 40
0.5
 40
0.625
 40
0.625
 40
0.625
 40
0.625
 40
0.75
 40
0.75
 40
0.75
 40
0.75
 40
0.875
 40
0.875
 40
0.875
 40
0.875
 40
1.0
 40
1.0
 40
1.0
 40
1.0
 10
-71.8309
 20
-33.295
 30
0.0
 10
-72.4392
 20
-34.0452
 30
0.0
 10
-74.2017
 20
-34.13520000000001
 30
0.0
 10
-74.76430000000001
 20
-33.3879
 30
0.0
 10
-74.76430000000001
 20
-33.3879
 30
0.0
 10
-76.819
 20
-30.6583
 30
0.0
 10
-80.63120000000001
 20
-27.1469
 30
0.0
 10
-80.63120000000001
 20
-20.4975
 30
0.0
 10
-80.63120000000001
 20
-20.4975
 30
0.0
 10
-80.63120000000001
 20
-20.4975
 30
0.0
 10
-80.63120000000001
 20
-15.0524
 30
0.0
 10
-80.63120000000001
 20
-15.0524
 30
0.0
 10
-80.63120000000001
 20
-15.0524
 30
0.0
 10
-80.63120000000001
 20
-12.8269
 30
0.0
 10
-79.60380000000001
 20
-11.0062
 30
0.0
 10
-78.34790000000001
 20
-11.0062
 30
0.0
 10
-78.34790000000001
 20
-11.0062
 30
0.0
 10
-78.34790000000001
 20
-11.0062
 30
0.0
 10
-68.2474
 20
-11.0062
 30
0.0
 10
-68.2474
 20
-11.0062
 30
0.0
 10
-68.2474
 20
-11.0062
 30
0.0
 10
-66.9915
 20
-11.0062
 30
0.0
 10
-65.9641
 20
-12.827
 30
0.0
 10
-65.9641
 20
-15.0524
 30
0.0
 10
-65.9641
 20
-15.0524
 30
0.0
 10
-65.9641
 20
-15.0524
 30
0.0
 10
-65.9641
 20
-20.4975
 30
0.0
 10
-65.9641
 20
-20.4975
 30
0.0
 10
-65.9641
 20
-20.4975
 30
0.0
 10
-65.9641
 20
-27.0412
 30
0.0
 10
-69.69070000000001
 20
-30.6558
 30
0.0
 10
-71.8309
 20
-33.295
 30
0.0
  0
SPLINE
  5
54
330
1F
100
AcDbEntity
  8
EBENE_1
 62
   253
100
AcDbSpline
210
0.0
220
0.0
230
1.0
 70
    11
 71
     3
 72
    36
 73
    32
 74
     0
 42
0.0000000001
 43
0.0000000001
 40
0.0
 40
0.0
 40
0.0
 40
0.0
 40
0.125
 40
0.125
 40
0.125
 40
0.125
 40
0.25
 40
0.25
 40
0.25
 40
0.25
 40
0.375
 40
0.375
 40
0.375
 40
0.375
 40
0.5
 40
0.5
 40
0.5
 40
0.5
 40
0.625
 40
0.625
 40
0.625
 40
0.625
 40
0.75
 40
0.75
 40
0.75
 40
0.75
 40
0.875
 40
0.875
 40
0.875
 40
0.875
 40
1.0
 40
1.0
 40
1.0
 40
1.0
 10
-83.39360000000001
 20
-84.9295
 30
0.0
 10
-83.39360000000001
 20
-84.9295
 30
0.0
 10
-83.39360000000001
 20
-78.26820000000001
 30
0.0
 10
-83.39360000000001
 20
-78.26820000000001
 30
0.0
 10
-83.39360000000001
 20
-78.26820000000001
 30
0.0
 10
-83.39360000000001
 20
-75.24460000000001
 30
0.0
 10
-81.99260000000001
 20
-72.7711
 30
0.0
 10
-80.2801
 20
-72.7711
 30
0.0
 10
-80.2801
 20
-72.7711
 30
0.0
 10
-80.2801
 20
-72.7711
 30
0.0
 10
-66.50710000000001
 20
-72.7711
 30
0.0
 10
-66.50710000000001
 20
-72.7711
 30
0.0
 10
-66.50710000000001
 20
-72.7711
 30
0.0
 10
-64.7946
 20
-72.7711
 30
0.0
 10
-63.39360000000001
 20
-75.24460000000001
 30
0.0
 10
-63.39360000000001
 20
-78.26820000000001
 30
0.0
 10
-63.39360000000001
 20
-78.26820000000001
 30
0.0
 10
-63.39360000000001
 20
-78.26820000000001
 30
0.0
 10
-63.39360000000001
 20
-84.9295
 30
0.0
 10
-63.39360000000001
 20
-84.9295
 30
0.0
 10
-63.39360000000001
 20
-84.9295
 30
0.0
 10
-63.39360000000001
 20
-87.1673
 30
0.0
 10
-65.4148
 20
-90.5921
 30
0.0
 10
-68.2474
 20
-90.5921
 30
0.0
 10
-68.2474
 20
-90.5921
 30
0.0
 10
-68.2474
 20
-90.5921
 30
0.0
 10
-78.34790000000001
 20
-90.5921
 30
0.0
 10
-78.34790000000001
 20
-90.5921
 30
0.0
 10
-78.34790000000001
 20
-90.5921
 30
0.0
 10
-81.13600000000001
 20
-90.5921
 30
0.0
 10
-83.11890000000001
 20
-87.48060000000001
 30
0.0
 10
-83.39360000000001
 20
-84.9295
 30
0.0
  0
SPLINE
  5
55
330
1F
100
AcDbEntity
  8
EBENE_1
 62
   253
100
AcDbSpline
210
0.0
220
0.0
230
1.0
 70
    11
 71
     3
 72
    36
 73
    32
 74
     0
 42
0.0000000001
 43
0.0000000001
 40
0.0
 40
0.0
 40
0.0
 40
0.0
 40
0.125
 40
0.125
 40
0.125
 40
0.125
 40
0.25
 40
0.25
 40
0.25
 40
0.25
 40
0.375
 40
0.375
 40
0.375
 40
0.375
 40
0.5
 40
0.5
 40
0.5
 40
0.5
 40
0.625
 40
0.625
 40
0.625
 40
0.625
 40
0.75
 40
0.75
 40
0.75
 40
0.75
 40
0.875
 40
0.875
 40
0.875
 40
0.875
 40
1.0
 40
1.0
 40
1.0
 40
1.0
 10
-80.63120000000001
 20
-85.32480000000001
 30
0.0
 10
-80.63120000000001
 20
-85.32480000000001
 30
0.0
 10
-80.63120000000001
 20
-79.8797
 30
0.0
 10
-80.63120000000001
 20
-79.8797
 30
0.0
 10
-80.63120000000001
 20
-79.8797
 30
0.0
 10
-80.63120000000001
 20
-77.6542
 30
0.0
 10
-79.60380000000001
 20
-75.8335
 30
0.0
 10
-78.34790000000001
 20
-75.8335
 30
0.0
 10
-78.34790000000001
 20
-75.8335
 30
0.0
 10
-78.34790000000001
 20
-75.8335
 30
0.0
 10
-68.2474
 20
-75.8335
 30
0.0
 10
-68.2474
 20
-75.8335
 30
0.0
 10
-68.2474
 20
-75.8335
 30
0.0
 10
-66.9915
 20
-75.8335
 30
0.0
 10
-65.9641
 20
-77.65430000000001
 30
0.0
 10
-65.9641
 20
-79.8797
 30
0.0
 10
-65.9641
 20
-79.8797
 30
0.0
 10
-65.9641
 20
-79.8797
 30
0.0
 10
-65.9641
 20
-85.32480000000001
 30
0.0
 10
-65.9641
 20
-85.32480000000001
 30
0.0
 10
-65.9641
 20
-85.32480000000001
 30
0.0
 10
-65.9641
 20
-86.56700000000001
 30
0.0
 10
-66.73780000000001
 20
-88.08930000000001
 30
0.0
 10
-68.16420000000001
 20
-88.11320000000001
 30
0.0
 10
-68.16420000000001
 20
-88.11320000000001
 30
0.0
 10
-68.16420000000001
 20
-88.11320000000001
 30
0.0
 10
-78.34780000000001
 20
-88.28360000000001
 30
0.0
 10
-78.34780000000001
 20
-88.28360000000001
 30
0.0
 10
-78.34780000000001
 20
-88.28360000000001
 30
0.0
 10
-80.1033
 20
-88.313
 30
0.0
 10
-80.63120000000001
 20
-86.8062
 30
0.0
 10
-80.63120000000001
 20
-85.32480000000001
 30
0.0
  0
SPLINE
  5
56
330
1F
100
AcDbEntity
  8
EBENE_1
 62
   253
100
AcDbSpline
210
0.0
220
0.0
230
1.0
 70
    11
 71
     3
 72
    36
 73
    32
 74
     0
 42
0.0000000001
 43
0.0000000001
 40
0.0
 40
0.0
 40
0.0
 40
0.0
 40
0.125
 40
0.125
 40
0.125
 40
0.125
 40
0.25
 40
0.25
 40
0.25
 40
0.25
 40
0.375
 40
0.375
 40
0.375
 40
0.375
 40
0.5
 40
0.5
 40
0.5
 40
0.5
 40
0.625
 40
0.625
 40
0.625
 40
0.625
 40
0.75
 40
0.75
 40
0.75
 40
0.75
 40
0.875
 40
0.875
 40
0.875
 40
0.875
 40
1.0
 40
1.0
 40
1.0
 40
1.0
 10
-71.3935
 20
-69.93820000000001
 30
0.0
 10
-72.223
 20
-70.95740000000001
 30
0.0
 10
-74.6263
 20
-71.07980000000001
 30
0.0
 10
-75.3935
 20
-70.06440000000001
 30
0.0
 10
-75.3935
 20
-70.06440000000001
 30
0.0
 10
-78.19540000000001
 20
-66.35590000000001
 30
0.0
 10
-83.39360000000001
 20
-61.5854
 30
0.0
 10
-83.39360000000001
 20
-52.5515
 30
0.0
 10
-83.39360000000001
 20
-52.5515
 30
0.0
 10
-83.39360000000001
 20
-52.5515
 30
0.0
 10
-83.39360000000001
 20
-45.8902
 30
0.0
 10
-83.39360000000001
 20
-45.8902
 30
0.0
 10
-83.39360000000001
 20
-45.8902
 30
0.0
 10
-83.39360000000001
 20
-42.86660000000001
 30
0.0
 10
-81.99260000000001
 20
-40.3931
 30
0.0
 10
-80.2801
 20
-40.3931
 30
0.0
 10
-80.2801
 20
-40.3931
 30
0.0
 10
-80.2801
 20
-40.3931
 30
0.0
 10
-66.50710000000001
 20
-40.3931
 30
0.0
 10
-66.50710000000001
 20
-40.3931
 30
0.0
 10
-66.50710000000001
 20
-40.3931
 30
0.0
 10
-64.7946
 20
-40.3931
 30
0.0
 10
-63.39360000000001
 20
-42.86660000000001
 30
0.0
 10
-63.39360000000001
 20
-45.8902
 30
0.0
 10
-63.39360000000001
 20
-45.8902
 30
0.0
 10
-63.39360000000001
 20
-45.8902
 30
0.0
 10
-63.39360000000001
 20
-52.5515
 30
0.0
 10
-63.39360000000001
 20
-52.5515
 30
0.0
 10
-63.39360000000001
 20
-52.5515
 30
0.0
 10
-63.39360000000001
 20
-61.4418
 30
0.0
 10
-68.4752
 20
-66.35250000000001
 30
0.0
 10
-71.3935
 20
-69.93820000000001
 30
0.0
  0
SPLINE
  5
57
330
1F
100
AcDbEntity
  8
EBENE_1
 62
   253
100
AcDbSpline
210
0.0
220
0.0
230
1.0
 70
    11
 71
     3
 72
    36
 73
    32
 74
     0
 42
0.0000000001
 43
0.0000000001
 40
0.0
 40
0.0
 40
0.0
 40
0.0
 40
0.125
 40
0.125
 40
0.125
 40
0.125
 40
0.25
 40
0.25
 40
0.25
 40
0.25
 40
0.375
 40
0.375
 40
0.375
 40
0.375
 40
0.5
 40
0.5
 40
0.5
 40
0.5
 40
0.625
 40
0.625
 40
0.625
 40
0.625
 40
0.75
 40
0.75
 40
0.75
 40
0.75
 40
0.875
 40
0.875
 40
0.875
 40
0.875
 40
1.0
 40
1.0
 40
1.0
 40
1.0
 10
-71.8309
 20
-65.74430000000001
 30
0.0
 10
-72.4392
 20
-66.4945
 30
0.0
 10
-74.2017
 20
-66.58450000000001
 30
0.0
 10
-74.76430000000001
 20
-65.83720000000001
 30
0.0
 10
-74.76430000000001
 20
-65.83720000000001
 30
0.0
 10
-76.819
 20
-63.10760000000001
 30
0.0
 10
-80.63120000000001
 20
-59.5962
 30
0.0
 10
-80.63120000000001
 20
-52.9468
 30
0.0
 10
-80.63120000000001
 20
-52.9468
 30
0.0
 10
-80.63120000000001
 20
-52.9468
 30
0.0
 10
-80.63120000000001
 20
-47.5017
 30
0.0
 10
-80.63120000000001
 20
-47.5017
 30
0.0
 10
-80.63120000000001
 20
-47.5017
 30
0.0
 10
-80.63120000000001
 20
-45.2762
 30
0.0
 10
-79.60380000000001
 20
-43.4555
 30
0.0
 10
-78.34790000000001
 20
-43.4555
 30
0.0
 10
-78.34790000000001
 20
-43.4555
 30
0.0
 10
-78.34790000000001
 20
-43.4555
 30
0.0
 10
-68.2474
 20
-43.4555
 30
0.0
 10
-68.2474
 20
-43.4555
 30
0.0
 10
-68.2474
 20
-43.4555
 30
0.0
 10
-66.9915
 20
-43.4555
 30
0.0
 10
-65.9641
 20
-45.2763
 30
0.0
 10
-65.9641
 20
-47.5017
 30
0.0
 10
-65.9641
 20
-47.5017
 30
0.0
 10
-65.9641
 20
-47.5017
 30
0.0
 10
-65.9641
 20
-52.9468
 30
0.0
 10
-65.9641
 20
-52.9468
 30
0.0
 10
-65.9641
 20
-52.9468
 30
0.0
 10
-65.9641
 20
-59.4905
 30
0.0
 10
-69.69070000000001
 20
-63.1051
 30
0.0
 10
-71.8309
 20
-65.74430000000001
 30
0.0
  0
SPLINE
  5
58
330
1F
100
AcDbEntity
  8
EBENE_1
 62
   253
100
AcDbSpline
210
0.0
220
0.0
230
1.0
 70
    11
 71
     3
 72
    36
 73
    32
 74
     0
 42
0.0000000001
 43
0.0000000001
 40
0.0
 40
0.0
 40
0.0
 40
0.0
 40
0.125
 40
0.125
 40
0.125
 40
0.125
 40
0.25
 40
0.25
 40
0.25
 40
0.25
 40
0.375
 40
0.375
 40
0.375
 40
0.375
 40
0.5
 40
0.5
 40
0.5
 40
0.5
 40
0.625
 40
0.625
 40
0.625
 40
0.625
 40
0.75
 40
0.75
 40
0.75
 40
0.75
 40
0.875
 40
0.875
 40
0.875
 40
0.875
 40
1.0
 40
1.0
 40
1.0
 40
1.0
 10
6.892200000000001
 20
-100.67
 30
0.0
 10
7.1054
 20
-101.9667
 30
0.0
 10
9.130000000000001
 20
-103.2674
 30
0.0
 10
10.3004
 20
-102.7676
 30
0.0
 10
10.3004
 20
-102.7676
 30
0.0
 10
14.5749
 20
-100.9422
 30
0.0
 10
21.4566
 20
-99.38630000000001
 30
0.0
 10
25.9467
 20
-91.5472
 30
0.0
 10
25.9467
 20
-91.5472
 30
0.0
 10
25.9467
 20
-91.5472
 30
0.0
 10
29.2576
 20
-85.76700000000001
 30
0.0
 10
29.2576
 20
-85.76700000000001
 30
0.0
 10
29.2576
 20
-85.76700000000001
 30
0.0
 10
30.7604
 20
-83.14330000000001
 30
0.0
 10
30.7741
 20
-80.3006
 30
0.0
 10
29.2881
 20
-79.4495
 30
0.0
 10
29.2881
 20
-79.4495
 30
0.0
 10
29.2881
 20
-79.4495
 30
0.0
 10
17.3367
 20
-72.60390000000001
 30
0.0
 10
17.3367
 20
-72.60390000000001
 30
0.0
 10
17.3367
 20
-72.60390000000001
 30
0.0
 10
15.8507
 20
-71.75280000000001
 30
0.0
 10
13.4056
 20
-73.20280000000001
 30
0.0
 10
11.9028
 20
-75.82650000000001
 30
0.0
 10
11.9028
 20
-75.82650000000001
 30
0.0
 10
11.9028
 20
-75.82650000000001
 30
0.0
 10
8.592000000000001
 20
-81.6067
 30
0.0
 10
8.592000000000001
 20
-81.6067
 30
0.0
 10
8.592000000000001
 20
-81.6067
 30
0.0
 10
4.1733
 20
-89.32120000000001
 30
0.0
 10
6.142
 20
-96.10810000000001
 30
0.0
 10
6.892200000000001
 20
-100.67
 30
0.0
  0
SPLINE
  5
59
330
1F
100
AcDbEntity
  8
EBENE_1
 62
   253
100
AcDbSpline
210
0.0
220
0.0
230
1.0
 70
    11
 71
     3
 72
    36
 73
    32
 74
     0
 42
0.0000000001
 43
0.0000000001
 40
0.0
 40
0.0
 40
0.0
 40
0.0
 40
0.125
 40
0.125
 40
0.125
 40
0.125
 40
0.25
 40
0.25
 40
0.25
 40
0.25
 40
0.375
 40
0.375
 40
0.375
 40
0.375
 40
0.5
 40
0.5
 40
0.5
 40
0.5
 40
0.625
 40
0.625
 40
0.625
 40
0.625
 40
0.75
 40
0.75
 40
0.75
 40
0.75
 40
0.875
 40
0.875
 40
0.875
 40
0.875
 40
1.0
 40
1.0
 40
1.0
 40
1.0
 10
9.356200000000001
 20
-97.24820000000001
 30
0.0
 10
9.511200000000001
 20
-98.20150000000001
 30
0.0
 10
10.9959
 20
-99.15560000000001
 30
0.0
 10
11.8554
 20
-98.78670000000001
 30
0.0
 10
11.8554
 20
-98.78670000000001
 30
0.0
 10
14.9951
 20
-97.43940000000001
 30
0.0
 10
20.0483
 20
-96.2872
 30
0.0
 10
23.3532
 20
-90.51730000000001
 30
0.0
 10
23.3532
 20
-90.51730000000001
 30
0.0
 10
23.3532
 20
-90.51730000000001
 30
0.0
 10
26.0596
 20
-85.7924
 30
0.0
 10
26.0596
 20
-85.7924
 30
0.0
 10
26.0596
 20
-85.7924
 30
0.0
 10
27.1657
 20
-83.86120000000001
 30
0.0
 10
27.1791
 20
-81.77070000000001
 30
0.0
 10
26.0893
 20
-81.1465
 30
0.0
 10
26.0893
 20
-81.1465
 30
0.0
 10
26.0893
 20
-81.1465
 30
0.0
 10
17.3248
 20
-76.1263
 30
0.0
 10
17.3248
 20
-76.1263
 30
0.0
 10
17.3248
 20
-76.1263
 30
0.0
 10
16.235
 20
-75.5021
 30
0.0
 10
14.4385
 20
-76.5714
 30
0.0
 10
13.3324
 20
-78.50240000000001
 30
0.0
 10
13.3324
 20
-78.50240000000001
 30
0.0
 10
13.3324
 20
-78.50240000000001
 30
0.0
 10
10.626
 20
-83.2274
 30
0.0
 10
10.626
 20
-83.2274
 30
0.0
 10
10.626
 20
-83.2274
 30
0.0
 10
7.3737
 20
-88.9055
 30
0.0
 10
8.8109
 20
-93.8943
 30
0.0
 10
9.356200000000001
 20
-97.24820000000001
 30
0.0
  0
SPLINE
  5
5A
330
1F
100
AcDbEntity
  8
EBENE_1
 62
     8
100
AcDbSpline
210
0.0
220
0.0
230
1.0
 70
    11
 71
     3
 72
    36
 73
    32
 74
     0
 42
0.0000000001
 43
0.0000000001
 40
0.0
 40
0.0
 40
0.0
 40
0.0
 40
0.125
 40
0.125
 40
0.125
 40
0.125
 40
0.25
 40
0.25
 40
0.25
 40
0.25
 40
0.375
 40
0.375
 40
0.375
 40
0.375
 40
0.5
 40
0.5
 40
0.5
 40
0.5
 40
0.625
 40
0.625
 40
0.625
 40
0.625
 40
0.75
 40
0.75
 40
0.75
 40
0.75
 40
0.875
 40
0.875
 40
0.875
 40
0.875
 40
1.0
 40
1.0
 40
1.0
 40
1.0
 10
18.8074
 20
-100.2385
 30
0.0
 10
18.8074
 20
-100.2385
 30
0.0
 10
12.1461
 20
-100.2385
 30
0.0
 10
12.1461
 20
-100.2385
 30
0.0
 10
12.1461
 20
-100.2385
 30
0.0
 10
9.122500000000001
 20
-100.2385
 30
0.0
 10
6.649
 20
-98.83750000000001
 30
0.0
 10
6.649
 20
-97.125
 30
0.0
 10
6.649
 20
-97.125
 30
0.0
 10
6.649
 20
-97.125
 30
0.0
 10
6.649
 20
-83.352
 30
0.0
 10
6.649
 20
-83.352
 30
0.0
 10
6.649
 20
-83.352
 30
0.0
 10
6.649
 20
-81.6395
 30
0.0
 10
9.122500000000001
 20
-80.2385
 30
0.0
 10
12.1461
 20
-80.2385
 30
0.0
 10
12.1461
 20
-80.2385
 30
0.0
 10
12.1461
 20
-80.2385
 30
0.0
 10
18.8074
 20
-80.2385
 30
0.0
 10
18.8074
 20
-80.2385
 30
0.0
 10
18.8074
 20
-80.2385
 30
0.0
 10
21.0452
 20
-80.2385
 30
0.0
 10
24.47
 20
-82.25970000000001
 30
0.0
 10
24.47
 20
-85.09230000000001
 30
0.0
 10
24.47
 20
-85.09230000000001
 30
0.0
 10
24.47
 20
-85.09230000000001
 30
0.0
 10
24.47
 20
-95.19280000000001
 30
0.0
 10
24.47
 20
-95.19280000000001
 30
0.0
 10
24.47
 20
-95.19280000000001
 30
0.0
 10
24.47
 20
-97.98090000000001
 30
0.0
 10
21.3585
 20
-99.96380000000001
 30
0.0
 10
18.8074
 20
-100.2385
 30
0.0
  0
SPLINE
  5
5B
330
1F
100
AcDbEntity
  8
EBENE_1
 62
     8
100
AcDbSpline
210
0.0
220
0.0
230
1.0
 70
    11
 71
     3
 72
    36
 73
    32
 74
     0
 42
0.0000000001
 43
0.0000000001
 40
0.0
 40
0.0
 40
0.0
 40
0.0
 40
0.125
 40
0.125
 40
0.125
 40
0.125
 40
0.25
 40
0.25
 40
0.25
 40
0.25
 40
0.375
 40
0.375
 40
0.375
 40
0.375
 40
0.5
 40
0.5
 40
0.5
 40
0.5
 40
0.625
 40
0.625
 40
0.625
 40
0.625
 40
0.75
 40
0.75
 40
0.75
 40
0.75
 40
0.875
 40
0.875
 40
0.875
 40
0.875
 40
1.0
 40
1.0
 40
1.0
 40
1.0
 10
19.2027
 20
-97.4761
 30
0.0
 10
19.2027
 20
-97.4761
 30
0.0
 10
13.7576
 20
-97.4761
 30
0.0
 10
13.7576
 20
-97.4761
 30
0.0
 10
13.7576
 20
-97.4761
 30
0.0
 10
11.5321
 20
-97.4761
 30
0.0
 10
9.711400000000001
 20
-96.4487
 30
0.0
 10
9.711400000000001
 20
-95.19280000000001
 30
0.0
 10
9.711400000000001
 20
-95.19280000000001
 30
0.0
 10
9.711400000000001
 20
-95.19280000000001
 30
0.0
 10
9.711400000000001
 20
-85.09230000000001
 30
0.0
 10
9.711400000000001
 20
-85.09230000000001
 30
0.0
 10
9.711400000000001
 20
-85.09230000000001
 30
0.0
 10
9.711400000000001
 20
-83.8364
 30
0.0
 10
11.5322
 20
-82.809
 30
0.0
 10
13.7576
 20
-82.809
 30
0.0
 10
13.7576
 20
-82.809
 30
0.0
 10
13.7576
 20
-82.809
 30
0.0
 10
19.2027
 20
-82.809
 30
0.0
 10
19.2027
 20
-82.809
 30
0.0
 10
19.2027
 20
-82.809
 30
0.0
 10
20.4449
 20
-82.809
 30
0.0
 10
21.9672
 20
-83.5827
 30
0.0
 10
21.9911
 20
-85.0091
 30
0.0
 10
21.9911
 20
-85.0091
 30
0.0
 10
21.9911
 20
-85.0091
 30
0.0
 10
22.1615
 20
-95.1927
 30
0.0
 10
22.1615
 20
-95.1927
 30
0.0
 10
22.1615
 20
-95.1927
 30
0.0
 10
22.1909
 20
-96.9482
 30
0.0
 10
20.6841
 20
-97.4761
 30
0.0
 10
19.2027
 20
-97.4761
 30
0.0
  0
SPLINE
  5
5C
330
1F
100
AcDbEntity
  8
EBENE_1
 62
     5
100
AcDbSpline
210
0.0
220
0.0
230
1.0
 70
    27
 71
     3
 72
    12
 73
     8
 74
     0
 42
0.0000000001
 43
0.0000000001
 40
0.0
 40
0.0
 40
0.0
 40
0.0
 40
0.5
 40
0.5
 40
0.5
 40
0.5
 40
1.0
 40
1.0
 40
1.0
 40
1.0
 10
21.9911
 20
-85.0091
 30
0.0
 10
21.9911
 20
-85.0091
 30
0.0
 10
73.35300000000001
 20
-104.0933
 30
0.0
 10
73.35300000000001
 20
-104.0933
 30
0.0
 10
73.35300000000001
 20
-104.0933
 30
0.0
 10
73.35300000000001
 20
-104.0933
 30
0.0
 10
21.9911
 20
-85.0091
 30
0.0
 10
21.9911
 20
-85.0091
 30
0.0
  0
SPLINE
  5
5D
330
1F
100
AcDbEntity
  8
EBENE_1
 62
     5
100
AcDbSpline
210
0.0
220
0.0
230
1.0
 70
    11
 71
     3
 72
    20
 73
    16
 74
     0
 42
0.0000000001
 43
0.0000000001
 40
0.0
 40
0.0
 40
0.0
 40
0.0
 40
0.25
 40
0.25
 40
0.25
 40
0.25
 40
0.5
 40
0.5
 40
0.5
 40
0.5
 40
0.75
 40
0.75
 40
0.75
 40
0.75
 40
1.0
 40
1.0
 40
1.0
 40
1.0
 10
21.9911
 20
-85.0091
 30
0.0
 10
21.9911
 20
-85.0091
 30
0.0
 10
73.35300000000001
 20
-104.0933
 30
0.0
 10
73.35300000000001
 20
-104.0933
 30
0.0
 10
73.35300000000001
 20
-104.0933
 30
0.0
 10
73.35300000000001
 20
-104.0933
 30
0.0
 10
67.05760000000001
 20
-112.5334
 30
0.0
 10
67.05760000000001
 20
-112.5334
 30
0.0
 10
67.05760000000001
 20
-112.5334
 30
0.0
 10
67.05760000000001
 20
-112.5334
 30
0.0
 10
21.8908
 20
-96.34190000000001
 30
0.0
 10
21.8908
 20
-96.34190000000001
 30
0.0
 10
21.8908
 20
-96.34190000000001
 30
0.0
 10
21.8908
 20
-96.34190000000001
 30
0.0
 10
21.9911
 20
-85.0091
 30
0.0
 10
21.9911
 20
-85.0091
 30
0.0
  0
SPLINE
  5
5E
330
1F
100
AcDbEntity
  8
EBENE_1
100
AcDbSpline
210
0.0
220
0.0
230
1.0
 70
    24
 71
     3
 72
     8
 73
     4
 74
     0
 42
0.0000000001
 43
0.0000000001
 40
0.0
 40
0.0
 40
0.0
 40
0.0
 40
1.0
 40
1.0
 40
1.0
 40
1.0
 10
21.9911
 20
-85.0091
 30
0.0
 10
21.9911
 20
-85.0091
 30
0.0
 10
73.35300000000001
 20
-104.0933
 30
0.0
 10
73.35300000000001
 20
-104.0933
 30
0.0
  0
SPLINE
  5
5F
330
1F
100
AcDbEntity
  8
EBENE_1
100
AcDbSpline
210
0.0
220
0.0
230
1.0
 70
    11
 71
     3
 72
    20
 73
    16
 74
     0
 42
0.0000000001
 43
0.0000000001
 40
0.0
 40
0.0
 40
0.0
 40
0.0
 40
0.25
 40
0.25
 40
0.25
 40
0.25
 40
0.5
 40
0.5
 40
0.5
 40
0.5
 40
0.75
 40
0.75
 40
0.75
 40
0.75
 40
1.0
 40
1.0
 40
1.0
 40
1.0
 10
21.9911
 20
-85.0091
 30
0.0
 10
21.9911
 20
-85.0091
 30
0.0
 10
73.35300000000001
 20
-104.0933
 30
0.0
 10
73.35300000000001
 20
-104.0933
 30
0.0
 10
73.35300000000001
 20
-104.0933
 30
0.0
 10
73.35300000000001
 20
-104.0933
 30
0.0
 10
67.05760000000001
 20
-112.5334
 30
0.0
 10
67.05760000000001
 20
-112.5334
 30
0.0
 10
67.05760000000001
 20
-112.5334
 30
0.0
 10
67.05760000000001
 20
-112.5334
 30
0.0
 10
21.8908
 20
-96.34190000000001
 30
0.0
 10
21.8908
 20
-96.34190000000001
 30
0.0
 10
21.8908
 20
-96.34190000000001
 30
0.0
 10
21.8908
 20
-96.34190000000001
 30
0.0
 10
21.9911
 20
-85.0091
 30
0.0
 10
21.9911
 20
-85.0091
 30
0.0
  0
SPLINE
  5
60
330
1F
100
AcDbEntity
  8
EBENE_1
 62
   253
100
AcDbSpline
210
0.0
220
0.0
230
1.0
 70
    11
 71
     3
 72
    36
 73
    32
 74
     0
 42
0.0000000001
 43
0.0000000001
 40
0.0
 40
0.0
 40
0.0
 40
0.0
 40
0.125
 40
0.125
 40
0.125
 40
0.125
 40
0.25
 40
0.25
 40
0.25
 40
0.25
 40
0.375
 40
0.375
 40
0.375
 40
0.375
 40
0.5
 40
0.5
 40
0.5
 40
0.5
 40
0.625
 40
0.625
 40
0.625
 40
0.625
 40
0.75
 40
0.75
 40
0.75
 40
0.75
 40
0.875
 40
0.875
 40
0.875
 40
0.875
 40
1.0
 40
1.0
 40
1.0
 40
1.0
 10
-75.3934
 20
99.72330000000001
 30
0.0
 10
-74.5639
 20
100.5892
 30
0.0
 10
-72.1606
 20
100.6932
 30
0.0
 10
-71.3934
 20
99.8305
 30
0.0
 10
-71.3934
 20
99.8305
 30
0.0
 10
-68.5915
 20
96.6798
 30
0.0
 10
-63.3933
 20
92.6268
 30
0.0
 10
-63.3933
 20
84.9516
 30
0.0
 10
-63.3933
 20
84.9516
 30
0.0
 10
-63.3933
 20
84.9516
 30
0.0
 10
-63.3933
 20
79.29220000000001
 30
0.0
 10
-63.3933
 20
79.29220000000001
 30
0.0
 10
-63.3933
 20
79.29220000000001
 30
0.0
 10
-63.3933
 20
76.7234
 30
0.0
 10
-64.79430000000001
 20
74.6219
 30
0.0
 10
-66.5068
 20
74.6219
 30
0.0
 10
-66.5068
 20
74.6219
 30
0.0
 10
-66.5068
 20
74.6219
 30
0.0
 10
-80.27980000000001
 20
74.6219
 30
0.0
 10
-80.27980000000001
 20
74.6219
 30
0.0
 10
-80.27980000000001
 20
74.6219
 30
0.0
 10
-81.9923
 20
74.6219
 30
0.0
 10
-83.39330000000001
 20
76.7234
 30
0.0
 10
-83.39330000000001
 20
79.29220000000001
 30
0.0
 10
-83.39330000000001
 20
79.29220000000001
 30
0.0
 10
-83.39330000000001
 20
79.29220000000001
 30
0.0
 10
-83.39330000000001
 20
84.9516
 30
0.0
 10
-83.39330000000001
 20
84.9516
 30
0.0
 10
-83.39330000000001
 20
84.9516
 30
0.0
 10
-83.39330000000001
 20
92.5048
 30
0.0
 10
-78.3117
 20
96.6769
 30
0.0
 10
-75.3934
 20
99.72330000000001
 30
0.0
  0
SPLINE
  5
61
330
1F
100
AcDbEntity
  8
EBENE_1
 62
   253
100
AcDbSpline
210
0.0
220
0.0
230
1.0
 70
    11
 71
     3
 72
    20
 73
    16
 74
     0
 42
0.0000000001
 43
0.0000000001
 40
0.0
 40
0.0
 40
0.0
 40
0.0
 40
0.25
 40
0.25
 40
0.25
 40
0.25
 40
0.5
 40
0.5
 40
0.5
 40
0.5
 40
0.75
 40
0.75
 40
0.75
 40
0.75
 40
1.0
 40
1.0
 40
1.0
 40
1.0
 10
-73.3933
 20
98.55080000000001
 30
0.0
 10
-74.4978
 20
98.55080000000001
 30
0.0
 10
-75.3934
 20
97.6551
 30
0.0
 10
-75.3934
 20
96.55080000000001
 30
0.0
 10
-75.3934
 20
96.55080000000001
 30
0.0
 10
-75.3934
 20
95.44640000000001
 30
0.0
 10
-74.4978
 20
94.55080000000001
 30
0.0
 10
-73.3933
 20
94.55080000000001
 30
0.0
 10
-73.3933
 20
94.55080000000001
 30
0.0
 10
-72.289
 20
94.55080000000001
 30
0.0
 10
-71.3934
 20
95.44640000000001
 30
0.0
 10
-71.3934
 20
96.55080000000001
 30
0.0
 10
-71.3934
 20
96.55080000000001
 30
0.0
 10
-71.3934
 20
97.6551
 30
0.0
 10
-72.289
 20
98.55080000000001
 30
0.0
 10
-73.3933
 20
98.55080000000001
 30
0.0
  0
SPLINE
  5
62
330
1F
100
AcDbEntity
  8
EBENE_1
 62
   253
100
AcDbSpline
210
0.0
220
0.0
230
1.0
 70
    11
 71
     3
 72
    20
 73
    16
 74
     0
 42
0.0000000001
 43
0.0000000001
 40
0.0
 40
0.0
 40
0.0
 40
0.0
 40
0.25
 40
0.25
 40
0.25
 40
0.25
 40
0.5
 40
0.5
 40
0.5
 40
0.5
 40
0.75
 40
0.75
 40
0.75
 40
0.75
 40
1.0
 40
1.0
 40
1.0
 40
1.0
 10
-67.8841
 20
79.72580000000001
 30
0.0
 10
-66.3912
 20
79.72580000000001
 30
0.0
 10
-66.593
 20
76.6219
 30
0.0
 10
-67.8841
 20
76.6219
 30
0.0
 10
-67.8841
 20
76.6219
 30
0.0
 10
-67.8841
 20
76.6219
 30
0.0
 10
-78.9025
 20
76.6219
 30
0.0
 10
-78.9025
 20
76.6219
 30
0.0
 10
-78.9025
 20
76.6219
 30
0.0
 10
-80.1936
 20
76.6219
 30
0.0
 10
-80.21380000000001
 20
79.72580000000001
 30
0.0
 10
-78.9025
 20
79.72580000000001
 30
0.0
 10
-78.9025
 20
79.72580000000001
 30
0.0
 10
-78.9025
 20
79.72580000000001
 30
0.0
 10
-67.8841
 20
79.72580000000001
 30
0.0
 10
-67.8841
 20
79.72580000000001
 30
0.0
  0
SPLINE
  5
63
330
1F
100
AcDbEntity
  8
EBENE_1
 62
   253
100
AcDbSpline
210
0.0
220
0.0
230
1.0
 70
    11
 71
     3
 72
    36
 73
    32
 74
     0
 42
0.0000000001
 43
0.0000000001
 40
0.0
 40
0.0
 40
0.0
 40
0.0
 40
0.125
 40
0.125
 40
0.125
 40
0.125
 40
0.25
 40
0.25
 40
0.25
 40
0.25
 40
0.375
 40
0.375
 40
0.375
 40
0.375
 40
0.5
 40
0.5
 40
0.5
 40
0.5
 40
0.625
 40
0.625
 40
0.625
 40
0.625
 40
0.75
 40
0.75
 40
0.75
 40
0.75
 40
0.875
 40
0.875
 40
0.875
 40
0.875
 40
1.0
 40
1.0
 40
1.0
 40
1.0
 10
8.868
 20
24.6955
 30
0.0
 10
8.9261
 20
25.8928
 30
0.0
 10
10.6724
 20
27.5475
 30
0.0
 10
11.8172
 20
27.3998
 30
0.0
 10
11.8172
 20
27.3998
 30
0.0
 10
15.9984
 20
26.8585
 30
0.0
 10
22.5808
 20
27.2078
 30
0.0
 10
27.6146
 20
21.4141
 30
0.0
 10
27.6146
 20
21.4141
 30
0.0
 10
27.6146
 20
21.4141
 30
0.0
 10
31.3262
 20
17.1417
 30
0.0
 10
31.3262
 20
17.1417
 30
0.0
 10
31.3262
 20
17.1417
 30
0.0
 10
33.011
 20
15.202
 30
0.0
 10
33.3311
 20
12.6971
 30
0.0
 10
32.0387
 20
11.574
 30
0.0
 10
32.0387
 20
11.574
 30
0.0
 10
32.0387
 20
11.574
 30
0.0
 10
21.6415
 20
2.5417
 30
0.0
 10
21.6415
 20
2.5417
 30
0.0
 10
21.6415
 20
2.5417
 30
0.0
 10
20.3486
 20
1.4182
 30
0.0
 10
17.9127
 20
2.0857
 30
0.0
 10
16.2279
 20
4.0252
 30
0.0
 10
16.2279
 20
4.0252
 30
0.0
 10
16.2279
 20
4.0252
 30
0.0
 10
12.5162
 20
8.2973
 30
0.0
 10
12.5162
 20
8.2973
 30
0.0
 10
12.5162
 20
8.2973
 30
0.0
 10
7.563000000000001
 20
13.9997
 30
0.0
 10
8.662900000000001
 20
20.4818
 30
0.0
 10
8.868
 20
24.6955
 30
0.0
  0
SPLINE
  5
64
330
1F
100
AcDbEntity
  8
EBENE_1
 62
   253
100
AcDbSpline
210
0.0
220
0.0
230
1.0
 70
    11
 71
     3
 72
    20
 73
    16
 74
     0
 42
0.0000000001
 43
0.0000000001
 40
0.0
 40
0.0
 40
0.0
 40
0.0
 40
0.25
 40
0.25
 40
0.25
 40
0.25
 40
0.5
 40
0.5
 40
0.5
 40
0.5
 40
0.75
 40
0.75
 40
0.75
 40
0.75
 40
1.0
 40
1.0
 40
1.0
 40
1.0
 10
11.1468
 20
25.1223
 30
0.0
 10
10.3132
 20
24.3975
 30
0.0
 10
10.2243
 20
23.134
 30
0.0
 10
10.9487
 20
22.3003
 30
0.0
 10
10.9487
 20
22.3003
 30
0.0
 10
11.6726
 20
21.4669
 30
0.0
 10
12.936
 20
21.3779
 30
0.0
 10
13.77
 20
22.1019
 30
0.0
 10
13.77
 20
22.1019
 30
0.0
 10
14.6036
 20
22.8263
 30
0.0
 10
14.6926
 20
24.0897
 30
0.0
 10
13.9686
 20
24.9237
 30
0.0
 10
13.9686
 20
24.9237
 30
0.0
 10
13.2442
 20
25.7574
 30
0.0
 10
11.9803
 20
25.8462
 30
0.0
 10
11.1468
 20
25.1223
 30
0.0
  0
SPLINE
  5
65
330
1F
100
AcDbEntity
  8
EBENE_1
 62
   253
100
AcDbSpline
210
0.0
220
0.0
230
1.0
 70
    11
 71
     3
 72
    20
 73
    16
 74
     0
 42
0.0000000001
 43
0.0000000001
 40
0.0
 40
0.0
 40
0.0
 40
0.0
 40
0.25
 40
0.25
 40
0.25
 40
0.25
 40
0.5
 40
0.5
 40
0.5
 40
0.5
 40
0.75
 40
0.75
 40
0.75
 40
0.75
 40
1.0
 40
1.0
 40
1.0
 40
1.0
 10
27.6514
 20
14.5241
 30
0.0
 10
28.7789
 20
15.5029
 30
0.0
 10
30.6621
 20
13.0275
 30
0.0
 10
29.6875
 20
12.1807
 30
0.0
 10
29.6875
 20
12.1807
 30
0.0
 10
29.6875
 20
12.1807
 30
0.0
 10
21.3694
 20
4.9547
 30
0.0
 10
21.3694
 20
4.9547
 30
0.0
 10
21.3694
 20
4.9547
 30
0.0
 10
20.3949
 20
4.1075
 30
0.0
 10
18.3439
 20
6.4379
 30
0.0
 10
19.3338
 20
7.297400000000001
 30
0.0
 10
19.3338
 20
7.297400000000001
 30
0.0
 10
19.3338
 20
7.297400000000001
 30
0.0
 10
27.6514
 20
14.5241
 30
0.0
 10
27.6514
 20
14.5241
 30
0.0
  0
SPLINE
  5
66
330
1F
100
AcDbEntity
  8
EBENE_1
 62
     5
100
AcDbSpline
210
0.0
220
0.0
230
1.0
 70
    11
 71
     3
 72
    20
 73
    16
 74
     0
 42
0.0000000001
 43
0.0000000001
 40
0.0
 40
0.0
 40
0.0
 40
0.0
 40
0.25
 40
0.25
 40
0.25
 40
0.25
 40
0.5
 40
0.5
 40
0.5
 40
0.5
 40
0.75
 40
0.75
 40
0.75
 40
0.75
 40
1.0
 40
1.0
 40
1.0
 40
1.0
 10
-5.8372
 20
14.0034
 30
0.0
 10
-5.8372
 20
14.0034
 30
0.0
 10
-2.3516
 20
-83.3716
 30
0.0
 10
-2.3516
 20
-83.3716
 30
0.0
 10
-2.3516
 20
-83.3716
 30
0.0
 10
-2.3516
 20
-83.3716
 30
0.0
 10
8.0928
 20
-76.1003
 30
0.0
 10
8.0928
 20
-76.1003
 30
0.0
 10
8.0928
 20
-76.1003
 30
0.0
 10
8.0928
 20
-76.1003
 30
0.0
 10
3.9283
 20
6.087000000000001
 30
0.0
 10
3.9283
 20
6.087000000000001
 30
0.0
 10
3.9283
 20
6.087000000000001
 30
0.0
 10
3.9283
 20
6.087000000000001
 30
0.0
 10
-5.8372
 20
14.0034
 30
0.0
 10
-5.8372
 20
14.0034
 30
0.0
  0
SPLINE
  5
67
330
1F
100
AcDbEntity
  8
EBENE_1
 62
     5
100
AcDbSpline
210
0.0
220
0.0
230
1.0
 70
    27
 71
     3
 72
    12
 73
     8
 74
     0
 42
0.0000000001
 43
0.0000000001
 40
0.0
 40
0.0
 40
0.0
 40
0.0
 40
0.5
 40
0.5
 40
0.5
 40
0.5
 40
1.0
 40
1.0
 40
1.0
 40
1.0
 10
30.006
 20
13.7505
 30
0.0
 10
30.006
 20
13.7505
 30
0.0
 10
26.7919
 20
-83.9126
 30
0.0
 10
26.7919
 20
-83.9126
 30
0.0
 10
26.7919
 20
-83.9126
 30
0.0
 10
26.7919
 20
-83.9126
 30
0.0
 10
30.006
 20
13.7505
 30
0.0
 10
30.006
 20
13.7505
 30
0.0
  0
SPLINE
  5
68
330
1F
100
AcDbEntity
  8
EBENE_1
 62
     5
100
AcDbSpline
210
0.0
220
0.0
230
1.0
 70
    11
 71
     3
 72
    20
 73
    16
 74
     0
 42
0.0000000001
 43
0.0000000001
 40
0.0
 40
0.0
 40
0.0
 40
0.0
 40
0.25
 40
0.25
 40
0.25
 40
0.25
 40
0.5
 40
0.5
 40
0.5
 40
0.5
 40
0.75
 40
0.75
 40
0.75
 40
0.75
 40
1.0
 40
1.0
 40
1.0
 40
1.0
 10
30.006
 20
13.7505
 30
0.0
 10
30.006
 20
13.7505
 30
0.0
 10
26.7222
 20
-83.2269
 30
0.0
 10
26.7222
 20
-83.2269
 30
0.0
 10
26.7222
 20
-83.2269
 30
0.0
 10
26.7222
 20
-83.2269
 30
0.0
 10
16.2407
 20
-75.9885
 30
0.0
 10
16.2407
 20
-75.9885
 30
0.0
 10
16.2407
 20
-75.9885
 30
0.0
 10
16.2407
 20
-75.9885
 30
0.0
 10
19.5788
 20
5.5282
 30
0.0
 10
19.5788
 20
5.5282
 30
0.0
 10
19.5788
 20
5.5282
 30
0.0
 10
19.5788
 20
5.5282
 30
0.0
 10
30.006
 20
13.7505
 30
0.0
 10
30.006
 20
13.7505
 30
0.0
  0
SPLINE
  5
69
330
1F
100
AcDbEntity
  8
EBENE_1
100
AcDbSpline
210
0.0
220
0.0
230
1.0
 70
    24
 71
     3
 72
     8
 73
     4
 74
     0
 42
0.0000000001
 43
0.0000000001
 40
0.0
 40
0.0
 40
0.0
 40
0.0
 40
1.0
 40
1.0
 40
1.0
 40
1.0
 10
30.006
 20
13.7505
 30
0.0
 10
30.006
 20
13.7505
 30
0.0
 10
26.7919
 20
-83.9126
 30
0.0
 10
26.7919
 20
-83.9126
 30
0.0
  0
SPLINE
  5
6A
330
1F
100
AcDbEntity
  8
EBENE_1
100
AcDbSpline
210
0.0
220
0.0
230
1.0
 70
    11
 71
     3
 72
    20
 73
    16
 74
     0
 42
0.0000000001
 43
0.0000000001
 40
0.0
 40
0.0
 40
0.0
 40
0.0
 40
0.25
 40
0.25
 40
0.25
 40
0.25
 40
0.5
 40
0.5
 40
0.5
 40
0.5
 40
0.75
 40
0.75
 40
0.75
 40
0.75
 40
1.0
 40
1.0
 40
1.0
 40
1.0
 10
30.006
 20
13.7505
 30
0.0
 10
30.006
 20
13.7505
 30
0.0
 10
26.7222
 20
-83.2269
 30
0.0
 10
26.7222
 20
-83.2269
 30
0.0
 10
26.7222
 20
-83.2269
 30
0.0
 10
26.7222
 20
-83.2269
 30
0.0
 10
16.2407
 20
-75.9885
 30
0.0
 10
16.2407
 20
-75.9885
 30
0.0
 10
16.2407
 20
-75.9885
 30
0.0
 10
16.2407
 20
-75.9885
 30
0.0
 10
19.5788
 20
5.5282
 30
0.0
 10
19.5788
 20
5.5282
 30
0.0
 10
19.5788
 20
5.5282
 30
0.0
 10
19.5788
 20
5.5282
 30
0.0
 10
30.006
 20
13.7505
 30
0.0
 10
30.006
 20
13.7505
 30
0.0
  0
ELLIPSE
  5
6B
330
1F
100
AcDbEntity
  8
EBENE_1
 62
   251
100
AcDbEllipse
 10
12.2744
 20
-84.9517
 30
0.0
 11
1.5444
 21
0.0
 31
0.0
210
0.0
220
0.0
230
1.0
 40
0.9712509712509713
 41
0.0
 42
6.283185307179586
  0
ELLIPSE
  5
6C
330
1F
100
AcDbEntity
  8
EBENE_1
 62
   251
100
AcDbEllipse
 10
12.2744
 20
-95.38160000000001
 30
0.0
 11
1.5444
 21
0.0
 31
0.0
210
0.0
220
0.0
230
1.0
 40
0.9712509712509713
 41
0.0
 42
6.283185307179586
  0
POLYLINE
  5
6D
330
1F
100
AcDbEntity
  8
EBENE_1
 62
   253
100
AcDb2dPolyline
 66
     1
 10
0.0
 20
0.0
 30
0.0
 70
     1
  0
VERTEX
  5
77
330
6D
100
AcDbEntity
  8
EBENE_1
 62
   253
100
AcDbVertex
100
AcDb2dVertex
 10
17.9393
 20
-35.2101
 30
0.0
  0
VERTEX
  5
78
330
6D
100
AcDbEntity
  8
EBENE_1
 62
   253
100
AcDbVertex
100
AcDb2dVertex
 10
28.9577
 20
-35.2101
 30
0.0
  0
VERTEX
  5
79
330
6D
100
AcDbEntity
  8
EBENE_1
 62
   253
100
AcDbVertex
100
AcDb2dVertex
 10
28.9577
 20
-30.7389
 30
0.0
  0
VERTEX
  5
7A
330
6D
100
AcDbEntity
  8
EBENE_1
 62
   253
100
AcDbVertex
100
AcDb2dVertex
 10
17.9393
 20
-30.7389
 30
0.0
  0
VERTEX
  5
7B
330
6D
100
AcDbEntity
  8
EBENE_1
 62
   253
100
AcDbVertex
100
AcDb2dVertex
 10
17.9393
 20
-35.2101
 30
0.0
  0
SEQEND
  5
76
330
6D
100
AcDbEntity
  8
EBENE_1
 62
   253
  0
POLYLINE
  5
6E
330
1F
100
AcDbEntity
  8
EBENE_1
 62
   253
100
AcDb2dPolyline
 66
     1
 10
0.0
 20
0.0
 30
0.0
 70
     1
  0
VERTEX
  5
7D
330
6E
100
AcDbEntity
  8
EBENE_1
 62
   253
100
AcDbVertex
100
AcDb2dVertex
 10
-5.3269
 20
-35.0065
 30
0.0
  0
VERTEX
  5
7E
330
6E
100
AcDbEntity
  8
EBENE_1
 62
   253
100
AcDbVertex
100
AcDb2dVertex
 10
6.0105
 20
-35.0065
 30
0.0
  0
VERTEX
  5
7F
330
6E
100
AcDbEntity
  8
EBENE_1
 62
   253
100
AcDbVertex
100
AcDb2dVertex
 10
6.0105
 20
-30.7389
 30
0.0
  0
VERTEX
  5
80
330
6E
100
AcDbEntity
  8
EBENE_1
 62
   253
100
AcDbVertex
100
AcDb2dVertex
 10
-5.3269
 20
-30.7389
 30
0.0
  0
VERTEX
  5
81
330
6E
100
AcDbEntity
  8
EBENE_1
 62
   253
100
AcDbVertex
100
AcDb2dVertex
 10
-5.3269
 20
-35.0065
 30
0.0
  0
SEQEND
  5
7C
330
6E
100
AcDbEntity
  8
EBENE_1
 62
   253
  0
SPLINE
  5
6F
330
1F
100
AcDbEntity
  8
EBENE_1
100
AcDbSpline
210
0.0
220
0.0
230
1.0
 70
    11
 71
     3
 72
    36
 73
    32
 74
     0
 42
0.0000000001
 43
0.0000000001
 40
0.0
 40
0.0
 40
0.0
 40
0.0
 40
0.125
 40
0.125
 40
0.125
 40
0.125
 40
0.25
 40
0.25
 40
0.25
 40
0.25
 40
0.375
 40
0.375
 40
0.375
 40
0.375
 40
0.5
 40
0.5
 40
0.5
 40
0.5
 40
0.625
 40
0.625
 40
0.625
 40
0.625
 40
0.75
 40
0.75
 40
0.75
 40
0.75
 40
0.875
 40
0.875
 40
0.875
 40
0.875
 40
1.0
 40
1.0
 40
1.0
 40
1.0
 10
4.2157
 20
-87.20530000000001
 30
0.0
 10
4.2157
 20
-87.20530000000001
 30
0.0
 10
4.7023
 20
-87.20530000000001
 30
0.0
 10
4.7023
 20
-87.20530000000001
 30
0.0
 10
4.7023
 20
-87.20530000000001
 30
0.0
 10
5.0376
 20
-87.20530000000001
 30
0.0
 10
5.312
 20
-87.47970000000001
 30
0.0
 10
5.312
 20
-87.815
 30
0.0
 10
5.312
 20
-87.815
 30
0.0
 10
5.312
 20
-87.815
 30
0.0
 10
5.312
 20
-92.0009
 30
0.0
 10
5.312
 20
-92.0009
 30
0.0
 10
5.312
 20
-92.0009
 30
0.0
 10
5.312
 20
-92.33620000000001
 30
0.0
 10
5.0376
 20
-92.61060000000001
 30
0.0
 10
4.7023
 20
-92.61060000000001
 30
0.0
 10
4.7023
 20
-92.61060000000001
 30
0.0
 10
4.7023
 20
-92.61060000000001
 30
0.0
 10
4.2157
 20
-92.61060000000001
 30
0.0
 10
4.2157
 20
-92.61060000000001
 30
0.0
 10
4.2157
 20
-92.61060000000001
 30
0.0
 10
3.8804
 20
-92.61060000000001
 30
0.0
 10
3.606
 20
-92.33620000000001
 30
0.0
 10
3.606
 20
-92.0009
 30
0.0
 10
3.606
 20
-92.0009
 30
0.0
 10
3.606
 20
-92.0009
 30
0.0
 10
3.606
 20
-87.815
 30
0.0
 10
3.606
 20
-87.815
 30
0.0
 10
3.606
 20
-87.815
 30
0.0
 10
3.606
 20
-87.47970000000001
 30
0.0
 10
3.8804
 20
-87.20530000000001
 30
0.0
 10
4.2157
 20
-87.20530000000001
 30
0.0
  0
SPLINE
  5
70
330
1F
100
AcDbEntity
  8
EBENE_1
 62
   253
100
AcDbSpline
210
0.0
220
0.0
230
1.0
 70
    11
 71
     3
 72
    36
 73
    32
 74
     0
 42
0.0000000001
 43
0.0000000001
 40
0.0
 40
0.0
 40
0.0
 40
0.0
 40
0.125
 40
0.125
 40
0.125
 40
0.125
 40
0.25
 40
0.25
 40
0.25
 40
0.25
 40
0.375
 40
0.375
 40
0.375
 40
0.375
 40
0.5
 40
0.5
 40
0.5
 40
0.5
 40
0.625
 40
0.625
 40
0.625
 40
0.625
 40
0.75
 40
0.75
 40
0.75
 40
0.75
 40
0.875
 40
0.875
 40
0.875
 40
0.875
 40
1.0
 40
1.0
 40
1.0
 40
1.0
 10
3.7578
 20
-86.4102
 30
0.0
 10
3.7578
 20
-86.4102
 30
0.0
 10
23.2237
 20
-86.4102
 30
0.0
 10
23.2237
 20
-86.4102
 30
0.0
 10
23.2237
 20
-86.4102
 30
0.0
 10
24.1394
 20
-86.4102
 30
0.0
 10
24.8885
 20
-86.899
 30
0.0
 10
24.8885
 20
-87.4965
 30
0.0
 10
24.8885
 20
-87.4965
 30
0.0
 10
24.8885
 20
-87.4965
 30
0.0
 10
24.8885
 20
-92.2629
 30
0.0
 10
24.8885
 20
-92.2629
 30
0.0
 10
24.8885
 20
-92.2629
 30
0.0
 10
24.8885
 20
-92.8604
 30
0.0
 10
24.1394
 20
-93.34920000000001
 30
0.0
 10
23.2237
 20
-93.34920000000001
 30
0.0
 10
23.2237
 20
-93.34920000000001
 30
0.0
 10
23.2237
 20
-93.34920000000001
 30
0.0
 10
3.7578
 20
-93.34920000000001
 30
0.0
 10
3.7578
 20
-93.34920000000001
 30
0.0
 10
3.7578
 20
-93.34920000000001
 30
0.0
 10
2.8421
 20
-93.34920000000001
 30
0.0
 10
2.093
 20
-92.8604
 30
0.0
 10
2.093
 20
-92.2629
 30
0.0
 10
2.093
 20
-92.2629
 30
0.0
 10
2.093
 20
-92.2629
 30
0.0
 10
2.093
 20
-87.4965
 30
0.0
 10
2.093
 20
-87.4965
 30
0.0
 10
2.093
 20
-87.4965
 30
0.0
 10
2.093
 20
-86.899
 30
0.0
 10
2.8421
 20
-86.4102
 30
0.0
 10
3.7578
 20
-86.4102
 30
0.0
  0
SPLINE
  5
71
330
1F
100
AcDbEntity
  8
EBENE_1
 62
   253
100
AcDbSpline
210
0.0
220
0.0
230
1.0
 70
    11
 71
     3
 72
    36
 73
    32
 74
     0
 42
0.0000000001
 43
0.0000000001
 40
0.0
 40
0.0
 40
0.0
 40
0.0
 40
0.125
 40
0.125
 40
0.125
 40
0.125
 40
0.25
 40
0.25
 40
0.25
 40
0.25
 40
0.375
 40
0.375
 40
0.375
 40
0.375
 40
0.5
 40
0.5
 40
0.5
 40
0.5
 40
0.625
 40
0.625
 40
0.625
 40
0.625
 40
0.75
 40
0.75
 40
0.75
 40
0.75
 40
0.875
 40
0.875
 40
0.875
 40
0.875
 40
1.0
 40
1.0
 40
1.0
 40
1.0
 10
4.2157
 20
-87.20530000000001
 30
0.0
 10
4.2157
 20
-87.20530000000001
 30
0.0
 10
4.7023
 20
-87.20530000000001
 30
0.0
 10
4.7023
 20
-87.20530000000001
 30
0.0
 10
4.7023
 20
-87.20530000000001
 30
0.0
 10
5.0376
 20
-87.20530000000001
 30
0.0
 10
5.312
 20
-87.47970000000001
 30
0.0
 10
5.312
 20
-87.815
 30
0.0
 10
5.312
 20
-87.815
 30
0.0
 10
5.312
 20
-87.815
 30
0.0
 10
5.312
 20
-92.0009
 30
0.0
 10
5.312
 20
-92.0009
 30
0.0
 10
5.312
 20
-92.0009
 30
0.0
 10
5.312
 20
-92.33620000000001
 30
0.0
 10
5.0376
 20
-92.61060000000001
 30
0.0
 10
4.7023
 20
-92.61060000000001
 30
0.0
 10
4.7023
 20
-92.61060000000001
 30
0.0
 10
4.7023
 20
-92.61060000000001
 30
0.0
 10
4.2157
 20
-92.61060000000001
 30
0.0
 10
4.2157
 20
-92.61060000000001
 30
0.0
 10
4.2157
 20
-92.61060000000001
 30
0.0
 10
3.8804
 20
-92.61060000000001
 30
0.0
 10
3.606
 20
-92.33620000000001
 30
0.0
 10
3.606
 20
-92.0009
 30
0.0
 10
3.606
 20
-92.0009
 30
0.0
 10
3.606
 20
-92.0009
 30
0.0
 10
3.606
 20
-87.815
 30
0.0
 10
3.606
 20
-87.815
 30
0.0
 10
3.606
 20
-87.815
 30
0.0
 10
3.606
 20
-87.47970000000001
 30
0.0
 10
3.8804
 20
-87.20530000000001
 30
0.0
 10
4.2157
 20
-87.20530000000001
 30
0.0
  0
SPLINE
  5
72
330
1F
100
AcDbEntity
  8
EBENE_1
 62
   253
100
AcDbSpline
210
0.0
220
0.0
230
1.0
 70
    11
 71
     3
 72
    36
 73
    32
 74
     0
 42
0.0000000001
 43
0.0000000001
 40
0.0
 40
0.0
 40
0.0
 40
0.0
 40
0.125
 40
0.125
 40
0.125
 40
0.125
 40
0.25
 40
0.25
 40
0.25
 40
0.25
 40
0.375
 40
0.375
 40
0.375
 40
0.375
 40
0.5
 40
0.5
 40
0.5
 40
0.5
 40
0.625
 40
0.625
 40
0.625
 40
0.625
 40
0.75
 40
0.75
 40
0.75
 40
0.75
 40
0.875
 40
0.875
 40
0.875
 40
0.875
 40
1.0
 40
1.0
 40
1.0
 40
1.0
 10
-56.2194
 20
-77.83630000000001
 30
0.0
 10
-56.2194
 20
-77.83630000000001
 30
0.0
 10
-36.7535
 20
-77.83630000000001
 30
0.0
 10
-36.7535
 20
-77.83630000000001
 30
0.0
 10
-36.7535
 20
-77.83630000000001
 30
0.0
 10
-35.8378
 20
-77.83630000000001
 30
0.0
 10
-35.0887
 20
-78.32510000000001
 30
0.0
 10
-35.0887
 20
-78.9226
 30
0.0
 10
-35.0887
 20
-78.9226
 30
0.0
 10
-35.0887
 20
-78.9226
 30
0.0
 10
-35.0887
 20
-83.68900000000001
 30
0.0
 10
-35.0887
 20
-83.68900000000001
 30
0.0
 10
-35.0887
 20
-83.68900000000001
 30
0.0
 10
-35.0887
 20
-84.2865
 30
0.0
 10
-35.8378
 20
-84.7753
 30
0.0
 10
-36.7535
 20
-84.7753
 30
0.0
 10
-36.7535
 20
-84.7753
 30
0.0
 10
-36.7535
 20
-84.7753
 30
0.0
 10
-56.2194
 20
-84.7753
 30
0.0
 10
-56.2194
 20
-84.7753
 30
0.0
 10
-56.2194
 20
-84.7753
 30
0.0
 10
-57.1351
 20
-84.7753
 30
0.0
 10
-57.8842
 20
-84.2865
 30
0.0
 10
-57.8842
 20
-83.68900000000001
 30
0.0
 10
-57.8842
 20
-83.68900000000001
 30
0.0
 10
-57.8842
 20
-83.68900000000001
 30
0.0
 10
-57.8842
 20
-78.9226
 30
0.0
 10
-57.8842
 20
-78.9226
 30
0.0
 10
-57.8842
 20
-78.9226
 30
0.0
 10
-57.8842
 20
-78.32510000000001
 30
0.0
 10
-57.1351
 20
-77.83630000000001
 30
0.0
 10
-56.2194
 20
-77.83630000000001
 30
0.0
  0
SPLINE
  5
73
330
1F
100
AcDbEntity
  8
EBENE_1
 62
   253
100
AcDbSpline
210
0.0
220
0.0
230
1.0
 70
    11
 71
     3
 72
    36
 73
    32
 74
     0
 42
0.0000000001
 43
0.0000000001
 40
0.0
 40
0.0
 40
0.0
 40
0.0
 40
0.125
 40
0.125
 40
0.125
 40
0.125
 40
0.25
 40
0.25
 40
0.25
 40
0.25
 40
0.375
 40
0.375
 40
0.375
 40
0.375
 40
0.5
 40
0.5
 40
0.5
 40
0.5
 40
0.625
 40
0.625
 40
0.625
 40
0.625
 40
0.75
 40
0.75
 40
0.75
 40
0.75
 40
0.875
 40
0.875
 40
0.875
 40
0.875
 40
1.0
 40
1.0
 40
1.0
 40
1.0
 10
-55.76150000000001
 20
-78.6314
 30
0.0
 10
-55.76150000000001
 20
-78.6314
 30
0.0
 10
-55.2749
 20
-78.6314
 30
0.0
 10
-55.2749
 20
-78.6314
 30
0.0
 10
-55.2749
 20
-78.6314
 30
0.0
 10
-54.93960000000001
 20
-78.6314
 30
0.0
 10
-54.66520000000001
 20
-78.9058
 30
0.0
 10
-54.66520000000001
 20
-79.2411
 30
0.0
 10
-54.66520000000001
 20
-79.2411
 30
0.0
 10
-54.66520000000001
 20
-79.2411
 30
0.0
 10
-54.66520000000001
 20
-83.42700000000001
 30
0.0
 10
-54.66520000000001
 20
-83.42700000000001
 30
0.0
 10
-54.66520000000001
 20
-83.42700000000001
 30
0.0
 10
-54.66520000000001
 20
-83.76230000000001
 30
0.0
 10
-54.93960000000001
 20
-84.03670000000001
 30
0.0
 10
-55.2749
 20
-84.03670000000001
 30
0.0
 10
-55.2749
 20
-84.03670000000001
 30
0.0
 10
-55.2749
 20
-84.03670000000001
 30
0.0
 10
-55.76150000000001
 20
-84.03670000000001
 30
0.0
 10
-55.76150000000001
 20
-84.03670000000001
 30
0.0
 10
-55.76150000000001
 20
-84.03670000000001
 30
0.0
 10
-56.0968
 20
-84.03670000000001
 30
0.0
 10
-56.3712
 20
-83.76230000000001
 30
0.0
 10
-56.3712
 20
-83.42700000000001
 30
0.0
 10
-56.3712
 20
-83.42700000000001
 30
0.0
 10
-56.3712
 20
-83.42700000000001
 30
0.0
 10
-56.3712
 20
-79.2411
 30
0.0
 10
-56.3712
 20
-79.2411
 30
0.0
 10
-56.3712
 20
-79.2411
 30
0.0
 10
-56.3712
 20
-78.9058
 30
0.0
 10
-56.0968
 20
-78.6314
 30
0.0
 10
-55.76150000000001
 20
-78.6314
 30
0.0
  0
SPLINE
  5
74
330
1F
100
AcDbEntity
  8
EBENE_1
 62
   251
100
AcDbSpline
210
0.0
220
0.0
230
1.0
 70
    11
 71
     3
 72
    36
 73
    32
 74
     0
 42
0.0000000001
 43
0.0000000001
 40
0.0
 40
0.0
 40
0.0
 40
0.0
 40
0.125
 40
0.125
 40
0.125
 40
0.125
 40
0.25
 40
0.25
 40
0.25
 40
0.25
 40
0.375
 40
0.375
 40
0.375
 40
0.375
 40
0.5
 40
0.5
 40
0.5
 40
0.5
 40
0.625
 40
0.625
 40
0.625
 40
0.625
 40
0.75
 40
0.75
 40
0.75
 40
0.75
 40
0.875
 40
0.875
 40
0.875
 40
0.875
 40
1.0
 40
1.0
 40
1.0
 40
1.0
 10
12.1885
 20
-83.45180000000001
 30
0.0
 10
12.1885
 20
-83.45180000000001
 30
0.0
 10
12.3603
 20
-83.45180000000001
 30
0.0
 10
12.3603
 20
-83.45180000000001
 30
0.0
 10
12.3603
 20
-83.45180000000001
 30
0.0
 10
13.1625
 20
-83.45180000000001
 30
0.0
 10
13.8188
 20
-84.29690000000001
 30
0.0
 10
13.8188
 20
-85.32980000000001
 30
0.0
 10
13.8188
 20
-85.32980000000001
 30
0.0
 10
13.8188
 20
-85.32980000000001
 30
0.0
 10
13.8188
 20
-95.00370000000001
 30
0.0
 10
13.8188
 20
-95.00370000000001
 30
0.0
 10
13.8188
 20
-95.00370000000001
 30
0.0
 10
13.8188
 20
-96.03660000000001
 30
0.0
 10
13.1625
 20
-96.88170000000001
 30
0.0
 10
12.3603
 20
-96.88170000000001
 30
0.0
 10
12.3603
 20
-96.88170000000001
 30
0.0
 10
12.3603
 20
-96.88170000000001
 30
0.0
 10
12.1885
 20
-96.88170000000001
 30
0.0
 10
12.1885
 20
-96.88170000000001
 30
0.0
 10
12.1885
 20
-96.88170000000001
 30
0.0
 10
11.3863
 20
-96.88170000000001
 30
0.0
 10
10.73
 20
-96.03660000000001
 30
0.0
 10
10.73
 20
-95.00370000000001
 30
0.0
 10
10.73
 20
-95.00370000000001
 30
0.0
 10
10.73
 20
-95.00370000000001
 30
0.0
 10
10.73
 20
-85.32980000000001
 30
0.0
 10
10.73
 20
-85.32980000000001
 30
0.0
 10
10.73
 20
-85.32980000000001
 30
0.0
 10
10.73
 20
-84.29690000000001
 30
0.0
 10
11.3863
 20
-83.45180000000001
 30
0.0
 10
12.1885
 20
-83.45180000000001
 30
0.0
  0
SPLINE
  5
75
330
1F
100
AcDbEntity
  8
EBENE_1
 62
     1
100
AcDbSpline
210
0.0
220
0.0
230
1.0
 70
    11
 71
     3
 72
    20
 73
    16
 74
     0
 42
0.0000000001
 43
0.0000000001
 40
0.0
 40
0.0
 40
0.0
 40
0.0
 40
0.25
 40
0.25
 40
0.25
 40
0.25
 40
0.5
 40
0.5
 40
0.5
 40
0.5
 40
0.75
 40
0.75
 40
0.75
 40
0.75
 40
1.0
 40
1.0
 40
1.0
 40
1.0
 10
4.085900000000001
 20
-87.2193
 30
0.0
 10
4.085900000000001
 20
-87.2193
 30
0.0
 10
-11.8495
 20
-92.24380000000001
 30
0.0
 10
-11.8495
 20
-92.24380000000001
 30
0.0
 10
-11.8495
 20
-92.24380000000001
 30
0.0
 10
-11.8495
 20
-92.24380000000001
 30
0.0
 10
-10.2088
 20
-97.34820000000001
 30
0.0
 10
-10.2088
 20
-97.34820000000001
 30
0.0
 10
-10.2088
 20
-97.34820000000001
 30
0.0
 10
-10.2088
 20
-97.34820000000001
 30
0.0
 10
4.2157
 20
-92.61060000000001
 30
0.0
 10
4.2157
 20
-92.61060000000001
 30
0.0
 10
4.2157
 20
-92.61060000000001
 30
0.0
 10
4.2157
 20
-92.61060000000001
 30
0.0
 10
4.085900000000001
 20
-87.2193
 30
0.0
 10
4.085900000000001
 20
-87.2193
 30
0.0
  0
ENDSEC
  0
SECTION
  2
OBJECTS
  0
DICTIONARY
  5
C
330
0
100
AcDbDictionary
  3
ACAD_GROUP
350
D
  3
ACAD_LAYOUT
350
1A
  3
ACAD_MLINESTYLE
350
17
  3
ACAD_PLOTSETTINGS
350
19
1001
ACAD
1000
TREAT_AS_HARD
1070
     0
  0
DICTIONARY
  5
82
330
29
100
AcDbDictionary
  3
ACAD_XREC_ROUNDTRIP
360
83
  0
DICTIONARY
  5
D
102
{ACAD_REACTORS
330
C
102
}
330
C
100
AcDbDictionary
1001
ACAD
1000
TREAT_AS_HARD
1070
     0
  0
DICTIONARY
  5
1A
102
{ACAD_REACTORS
330
C
102
}
330
C
100
AcDbDictionary
1001
ACAD
1000
TREAT_AS_HARD
1070
     0
  0
DICTIONARY
  5
17
102
{ACAD_REACTORS
330
C
102
}
330
C
100
AcDbDictionary
  3
STANDARD
350
18
1001
ACAD
1000
TREAT_AS_HARD
1070
     0
  0
DICTIONARY
  5
19
102
{ACAD_REACTORS
330
C
102
}
330
C
100
AcDbDictionary
1001
ACAD
1000
TREAT_AS_HARD
1070
     0
  0
XRECORD
  5
83
102
{ACAD_REACTORS
330
82
102
}
330
82
100
AcDbXrecord
102
UCS
 74
     0
 71
     1
 10
0.0
 20
0.0
 30
0.0
 10
1.0
 20
0.0
 30
0.0
 10
0.0
 20
1.0
 30
0.0
146
0.0
 79
     0
102
VIEW
281
     0
  0
MLINESTYLE
  5
18
102
{ACAD_REACTORS
330
17
102
}
330
17
100
AcDbMlineStyle
  2
Standard
 70
     0
  3

 62
   256
 51
90.0
 52
90.0
 71
     2
 49
0.5
 62
   256
  6
BYLAYER
 49
-0.5
 62
   256
  6
BYLAYER
  0
ENDSEC
  0
EOF
